Song name
# A B C D E F G H I J K L M N O P Q R S T U V W X Y Z

Trampled By Turtles - New Son tab

e-14---17--------------12---|----------------------------------|
b---------15---12---15------|----------------------------------|
g---------------------------|-------14----16--14--------14-----|
d---------------------------|-14h16----16-17--16--14h16----16--|
a---------------------------|------------------------------17--|
e---------------------------|----------------------------------|
   D      b    G     b  D     A             G  f#  A        D            
   I      vi   IV    vi I     V            IV  iii V        I
(0:37)
e------------------------------------|--------------------------------------|
b------------------------------------|-----------------------------------12-|
g------------------------------------|-----------------11-11-12-14-12-14----|
d---------------14-------------14----|--------------14---14-----------------|
a-1414141414-17-----1414141414---17--|-1414141414-17------------------------|
e------------------------------------|--------------------------------------|
   b         D  e5   b         e5 D    b          D e5 D   
   vi        I  ii   vi        ii I    vi         I ii I
e------------------------------------|----------------------------------12-|
b------------------------------------|--------------------------------15---|
g------------------------------------|------------------11-11-12-14--------|
d---------------14-------------14----|---------------14---14---------------|
a-1414141414-17-----1414141414---17--|-1414141414-17-----------------------|
e------------------------------------|-------------------------------------|
leads back to intro part
Tap to rate this tab
 
# A B C D E F G H I J K L M N O P Q R S T U V W X Y Z