Song name
# A B C D E F G H I J K L M N O P Q R S T U V W X Y Z

Tramps - Zing Went The Strings Of My Heart tab

-----------------------------------------------------------------
	 Zing went the strings of my heart - Tramps
-----------------------------------------------------------------
Tabbed by:deHufter
Email:kurtkill@hotmail.com

Tuning:standard

Intro:
e|--12-----------------------------------------------------------|
B|--x---repeat---------------------------------------------------|
G|--9------------------------------------------------------------|
D|---------------------------------------------------------------|
A|---------------------------------------------------------------|
E|---------------------------------------------------------------|

Verse:
e|-----9---5---7-------------------------------------------------|
B|--9--9---5---7-------------------------------------------------|
G|--9--9---6---8-------------------------------------------------|
D|--9--11--7---9-------------------------------------------------|
A|--7--11--7---9-------------------------------------------------|
E|-----9---5---7-------------------------------------------------|

Pre-chorus:
e|--5--4--3~----3~-----------------------------------------------|
B|--5--4--3~----3~-----------------------------------------------|
G|--6--5--4~----3~-----------------------------------------------|
D|--7--6--5~----5~-----------------------------------------------|
A|--7--6--5~----5~-----------------------------------------------|
E|--5--4--3~----3~-----------------------------------------------|

Chorus: Zing....
e|-----9---5---7-------------------------------------------------|
B|--9--9---5---7-------------------------------------------------|
G|--9--9---6---8-------------------------------------------------|
D|--9--11--7---9-------------------------------------------------|
A|--7--11--7---9-------------------------------------------------|
E|-----9---5---7-------------------------------------------------|

Repeat verse + pre-chorus

Chorus 2: Zing....
e|-(12)-5-7-5----------------------------------------------------|
B|--9---5-5-5--9-------------------------------------------------|
G|--9---6-6-6--9-------------------------------------------------|
D|--9---7-7-7--9-------------------------------------------------|
A|-------------7-------------------------------------------------|
E|---------------------------------------------------------------|

Then repeat intro + verse + pre-chorus + chorus 2 + verse until end


| /  slide up
| \  slide down
| h  hammer-on
| p  pull-off
| ~  vibrato
| +  harmonic
| x  Mute note
==================================================================
Tap to rate this tab
# A B C D E F G H I J K L M N O P Q R S T U V W X Y Z