Guitaretab - guitar tabs
Song name
# A B C D E F G H I J K L M N O P Q R S T U V W X Y Z

Trans Siberian Orchestra - The World That He Sees tab

The World That He Sees off the Christmas Attic album, enjoy.
(Standard tuning)

(.36)
E---------------------------------|
B---------------------------------|
G---------5-5-5-5--5---2-------5--|
D-5-------5-5-5-5--5---2-3-5-5-5--|
A-5-x12---3-3-3-3--3-2-0-3-5-3-3--|
E-3---------3---3--------1-3-3----|
  *

(1.47)
E-------------------------------|
B-------------------------------|
G---------5-5-5-5--5---2--------|
D-5-------5-5-5-5--5---2-3-5-5--|
A-5-x12---3-3-3-3--3-2-0-3-5-3--|
E-3---------3---3--------1-3-3--|
  *

(2.12) bridge
E---------|
B---------|
G---------|
D-7-7-----|
A-7-7-x3-|
E-5-5-----|
  *

(2.52)
E-----------------------|
B-----------------------|
G-7-7-7-77---4---------|
D-7-7-7-77---4-5-7-7---|
A-5-5-5-55-4-2-5-7-7---|
E-5---5---------3-5-5---|


(3.13) solo
E--------------------------------------------------|
B-15---15-15b17r15-14----15----15-15b17r15-14------|
G---14----------------16----14----------------16---|
D--------------------------------------------------|
A--------------------------------------------------|
E--------------------------------------------------|

E------------------|
B-15---15----------|
G---14----12-12b14-|
D------------------|
A------------------|
E------------------|
[ Tab from: http://www.guitaretab.com/t/trans-siberian-orchestra/176587.html ]
(3.33) solo cont.
E------------------------------------------------|
B-15---15-15b17r15-14----15----15-15b17r15-14----|
G---14----------------16----14----------------16-|
D------------------------------------------------|
A------------------------------------------------|
E------------------------------------------------|

(3.43)
E-------------|
B-15---15-----|
G---14----12\-|
D-------------|
A-------------|
E-------------|

(3.48) little climb
E---------------------------------------|
B---------------------------------------|
G----------------------------------11---|
D-------11----11-12-11-12-14-12-14---14-|
A-12-14----14---------------------------|
E---------------------------------------|
  **************************************
(run cont.)
E-------------------------------|
B----------------------14-15----|
G-11-12-11-12-14-12-14----------|
D-------------------------------|
A-------------------------------|
E-------------------------------|
  **************

(3.53)
E-------------------------|
B-------------------------|
G-7-7-7-7--7---4--------7-|
D-7-7-7-7-7---4-5-7-7--7-|
A-5-5-5-5--5-4-2-5-7-7--5-|
E---5---5--------3-5-5----|


-End

Key
*=palm mute
\=slide
(15b17r15)= full bend and release


I tried to put the times in the best I could for the solo, unfortunately it gets broken 
a lot on Word.
Questions or corrections always welcome, nsxz0r@gmail.com, rock on.
Related for The World That He Sees tab