Song name
# A B C D E F G H I J K L M N O P Q R S T U V W X Y Z

Trans Siberian Orchestra - Requiem tab

I have taken the best parts of the rhthym and lead guitar parts and combined them so 
one person can play them with or without a full band playing.  It makes it a lot more fun 
play especially with some medium distortion.

All the notes that are in ( ) are to be held, not strumed again.

4/4
  Gtr I                                           Repeat next 2 bars 3x
|----------------|----------------------|-----||*-------------------|
|----------------|----------------------|-----||*-------------------|
|--12-12-12-8----|-(8)----(8)--10-10-10-|-7---||*-------------------|
|--12-12-12-8----|-(8)----(8)--10-10-10-|-7---||*------------3------|
|--10-10-10-6----|-(6)----(6)---8--8--8-|-5---||*--3-5-6-5-6---6-5--|
|--10-10-10-6----|-(6)----(6)---8--8--8-|-5---||*-------------------|


                   3x
|-----------------*||-----------------|-----------------|----|---------------|
|-----------------*||-----------------|-----------------|----|---------------|
|-----------------*||-----------------|-----------------|----|---------------|
|-5-3-------3-----*||-----------3-----|-5-3-------5-5-5-|----|---------3-3-3-|
|-----6-5-6---6-5-*||-3-5-6-5-6---6-5-|-----6-5-6-------|-6--|-(6)-(6)-------|
|-----------------*||-----------------|-----------------|----|---------------|

                      repeat this section 1 time
|----|------||*-------------|------------|--------------------*||
|----|------||*-------------|------------|--------------------*||
|----|------||*-------------|------------|--------------------*||
|----|------||*-------------|-------3----|-5-6-5-3---3--------*||
|-5--|-(5)--||*-3-----5-----|-6----------|---------6---6-5----*||
|----|------||*----3-----3--|----3-----3-|--------------------*||

         repeat this section one time
||*-----------------|-----------------*||-----------------|-----------------|
||*-----------------|-----------------*||-----------------|-----------------|
||*-----------------|-----------------*||-----------------|-----------------|
||*-----------3-----|-5-3-------3-----*||-----------3-----|-5-3-------5-5-5-|
||*-3-5-6-5-6---6-5-|-----6-5-6---6-5-*||-3-5-6-5-6---6-5-|-----6-5-6-------|
||*-----------------|-----------------*||-----------------|-----------------|


|----------|------------------|-----|-----------|------|
|----------|------------------|-----|-----------|------|
|----------|------------------|-----|-----------|------|
|----------|------------3-3-3-|-----|-----------|------|
|-6--------|-(6)----(6)-------|-5---|--1s/5-----|--3---|
|----------|------------------|-----|-----------|------|


|------------------|----------|------------------|
|------------------|----------|------------------|
|------------------|----------|------------------|
|------------5-5-5-|----------|------------3-3-3-|
|-(3)----(3)-------|-6--------|-(6)----(6)-------|
|------------------|----------|------------------|


|----------|-----------|-----------------------------|
|----------|-----------|-----------------------------|
|----------|-----------|-----------------------------|
|----------|-----------|-----------------------------|
|-5--------|-1s-5------|-3-5-6----6-6--6-5-3--3-3----|
|----------|-----------|-----------------------------|


|------------------------|-------------------------|------------------------|
|------------------------|-------------------------|------------------------|
|------------------------|-------------------------|------------------------|
|------------------------|-------------------------|------------------------|
|-3-5-6--6-6--6-5-3--3-3-|-5-6-8--8-8--8-6-5--5-5--|-5-6-8--8-8--8-6-5--5-5-|
|------------------------|-------------------------|------------------------|


|----------------------------|-------------------------------|
|----------------------------|-------------------------------|
|----------------------------|-------------------------------|
|----------------------------|-------------------------------|
|-6-8-10--10-10--10-8-6--6-6-|-6-8-10--10-10--10-8-6--6-6----|
|----------------------------|-------------------------------|


|------------------------|---------------------------|
|------------------------|---------------------------|
|------------------------|---------------------------|
|-3-5-6--6-6--6-5-3--3-3-|-3-5-6--6-6--6-5-3--3-3----|
|------------------------|---------------------------|
|------------------------|---------------------------|


|------------------------|------------------------|--------------------------|
|------------------------|------------------------|--------------------------|
|-0-5-7--7-7--7-5-0--0-0-|-5-7-8--8-8--8-7-5--5-5-|-0-5-7--7-7--7-5-0--0-0---|
|------------------------|------------------------|--------------------------|
|------------------------|------------------------|--------------------------|
|------------------------|------------------------|--------------------------|


 singing starts in 2/4 time
|-----||
|-----||
|-----||   Don't play anything
|-----||
|-----||
|-----||


 4/4
|------------------------|---------------------------||
|------------------------|---------------------------||
|------------------------|---------------------------||
|------------------------|---------------------------||
|-3-5-6--6-6--6-5-3--3-3-|-3-5-6--6-6--6-5-3--3-3----||
|------------------------|---------------------------||


 2/4 More Singing
|-----||
|-----||
|-----||
|-----||
|-----||
|-----||


|------------------------|---------------------------|
|------------------------|---------------------------|
|------------------------|---------------------------|
|------------------------|---------------------------|
|-3-5-6--6-6--6-5-3--3-3-|-3-5-6--6-6--6-5-3--3-3----|
|------------------------|---------------------------|


|-----------------------|---------------------------|
|-----------------------|---------------------------|
|-----------------------|---------------------------|
|-----------------------|---------------------------|
|-5-6-8--8-8--8-6-5-5-5-|-5-6-8--8-8--8-6-5--5-5----|
|-----------------------|---------------------------|


|----------------------------|-------------------------------|
|----------------------------|-------------------------------|
|----------------------------|-------------------------------|
|----------------------------|-------------------------------|
|-6-8-10--10-10--10-8-6--6-6-|-6-8-10--10-10--10-8-6--6-6----|
|----------------------------|-------------------------------|


|------------------------|---------------------------|
|------------------------|---------------------------|
|------------------------|---------------------------|
|-3-5-6--6-6--6-5-3--3-3-|-3-5-6--6-6--6-5-3--3-3----|
|------------------------|---------------------------|
|------------------------|---------------------------|


|------------------------|------------------------|------------------------|
|------------------------|------------------------|------------------------|
|-0-5-7--7-7--7-5-0--0-0-|-5-7-8--8-8--8-7-5--5-5-|-0-5-7--7-7--7-5-0--0-0-|
|------------------------|------------------------|------------------------|
|------------------------|------------------------|------------------------|
|------------------------|------------------------|------------------------|

Repeat these 2 bars one time              Then continue to here
||*-----------------|-----------------*||-----------------|-----------------|
||*-----------------|-----------------*||-----------------|-----------------|
||*-----------------|-----------------*||-----------------|-----------------|
||*-----------3-----|-5-3-------3-----*||-----------3-----|-5-3-------5-5-5-|
||*-3-5-6-5-6---6-5-|-----6-5-6---6-5-*||-3-5-6-5-6---6-5-|-----6-5-6-------|
||*-----------------|-----------------*||-----------------|-----------------|


|----------|------------------|----------|-----------|------|
|----------|------------------|----------|-----------|------|
|----------|------------------|----------|-----------|------|
|----------|------------3-3-3-|----------|-----------|------|
|-6--------|-(6)----(6)-------|-5--------|-1s/5------|-3----|
|----------|------------------|----------|-----------|------|


|----------------|----------|------------------|----------|-----------|
|----------------|----------|------------------|----------|-----------|
|----------------|----------|------------------|----------|-----------|
|----------5-5-5-|----------|------------3-3-3-|----------|-----------|
|-3----(3)-------|-6--------|-(6)----(6)-------|-5--------|-1s/5------|
|----------------|----------|------------------|----------|-----------|

     repeat these 3 bars                         Then gradually slow down
||*------------|----------|-----------------*||------------------|
||*------------|----------|-----------------*||------------------|
||*------------|----------|-----------------*||------------------|
||*------------|-----3----|-5-6-5-3---3-----*||-5-6-5-3---3------|
||*-3----5-----|-6--------|---------6---6-5-*||---------6---6-5--|
||*---3-----3--|---3----3-|-----------------*||------------------|


|----------------|---------------------|----|-------|
|----------------|---------------------|----|-------|
|--12-12-12-8----|-(8)----(8)-10-10-10-|-7--|--5----|
|--12-12-12-8----|-(8)----(8)-10-10-10-|-7--|--5----|
|--10-10-10-6----|-(6)----(6)--8--8--8-|-5--|--3----|
|--10-10-10-6----|-(6)----(6)--8--8--8-|-5--|--3----|
Tap to rate this tab
# A B C D E F G H I J K L M N O P Q R S T U V W X Y Z