Song name
# A B C D E F G H I J K L M N O P Q R S T U V W X Y Z

Trans Siberian Orchestra - The Safest Way Into Tomorrow tab

Track 6 off of disc 1 of Night Castle.  The Safest Way into Tomorrow.
(standard tuning)
(.55)
E---------------------------------------------------------|
B---------------------------------------------------------|
G------------------7-----7-----7--  (repeats again @ 2.21-|
D-2-2-2-2-5-5-7-7--7-7-5-7-7-5-7-7------------------------|
A-2-2-2-2-5-5-7-7--5-7-5-5-7-5-5-7------------------------|
E-0-0-0-0-3-3-5-5----5-3---5-3---5------------------------|
  ***************

(3.25)
E---------------------------------|
B---------------------------------|
G-----------------7---7---7---7---|
D-5-5-5-5-5-5-5-5-7-7-7-7-7-7-7-7-|
A-5-5-5-5-5-5-5-5-5-7-5-7-5-7-5-7-|
E-3-3-3-3-3-3-3-3---5---5---5---5-|
  ***************

(3.44) Solo
E-15b17-15b17r15-14-15-------------|
B----------------------17b19-17-15-|
G----------------------------------|
D----------------------------------|
A----------------------------------|
E----------------------------------|


E----------14-15-15b17r15-14-15-15b17-15-14-15----|
B----15-17-------------------------------------17-|
G-14----------------------------------------------|
D-------------------------------------------------|
A-------------------------------------------------|
E-------------------------------------------------|


E-------------14b15-14----14b15-14-12--|
B----14-15-17----------15--------------|
G-16-----------------------------------|
D--------------------------------------|
A--------------------------------------|
E--------------------------------------|


E-14b15-14-14-------------|
B-------------17-17b19-15-|
G-------------------------|
D-------------------------|
A-------------------------|
E-------------------------|


E----15b17-15b17r15-14-15-------------|
B-------------------------17b19-17-15-|
G-14----------------------------------|
D-------------------------------------|
A-------------------------------------|
E-------------------------------------|


-End

*Key*
* = palm mute
15b17 = full bend
14b15 = half bend
15b17r15 = full bend and release

Thatís about it, itís a pretty simple song, and has a fun solo. Enjoy, rock on, 
or comments always welcome nsxz0r@gmail.com
Tap to rate this tab
# A B C D E F G H I J K L M N O P Q R S T U V W X Y Z