Trans Siberian Orchestra - Carol Of The Bells tab

this is a three guitar song that I transcribed most of the parts into a one or 
lead guitar song. It is a lot of fun and great to show off with at Christmas time, 
or just in general. If you want to get all the parts divided up, I would suggest 
seeing version three of Carol of The Bells on here, it has an accurate description 
of each individual guitar part.

Tab made by: JestyrGod

Some distortion, heavier at the end, clean for first 34 seconds.

  0:01-0:30        0:30-0:34        0:34    0:45    0:53
e|------------|   |--------|   e|-------|-------|-------|
B|------8-7---|   |--------|   B|-------|-------|-------|
G|----9-------|   |--------|   G|-------|-------|-------|
D|--9---------|x19|--9~~~--|   D|---2---|---2---|---2---|
A|------------|   |--------|   A|---2---|---2---|---2---|
E|------------|   |--------|   E|---0---|---0---|---0---|
 
  0:57-1:01		1:01-1:04	
e|------------|   e|----------------|
B|--8-7h8-----|   B|--12-10h12------|
G|-------9----|   G|----------12----|
D|------------|x4 D|----------------|x4
A|------------|   A|----------------|
E|------------|   E|----------------|

  1:05-1:08
e|--12--12-12-10--------------------------------------------------|
B|---------------13--12--12-12--10----10--10-10--12--10-----------|
G|---------------------------------12-------------------9--9-9-9--|
D|----------------------------------------------------------------|
A|----------------------------------------------------------------|
E|----------------------------------------------------------------|

  1:09-1:13
e|--------------------------------|
B|------------------10h12-10------|
G|----------9-11/12---------12----|
D|--9-11-12-----------------------|x2
A|--------------------------------|
E|--------------------------------|
 
 1:12-1:16
e|-----------------------------------------------------------------12~~-----|
B|--------------------------------------------------------------------------|
G|---------9-11-12---------9-11-12---------9-11-12---------9-11-12----------|
D|-9-11-12---------9-11-12---------9-11-12---------9-11-12------------------|
A|--------------------------------------------------------------------------|
E|--------------------------------------------------------------------------|

1:20-1:24                        1:28-1:32
e|--------------------------------|-----------------------------------|
B|--------------------------------|-----------------------------------|
G|--9-9-7-------------------------|--9-9-7----------------------------|
D|--------10-10-9-7-9-7-----------|--------10-10-9-7-9-7--------------|
A|----------------------10-10-9-7-|----------------------10-10-9-7-7~-|
E|--------------------------------|-----------------------------------|

2:10-2:22
e|--------------------------------|
B|---15^--15vvv-12^(half)-12vvv---|
G|--------------------------------|
D|--------------------------------|x3
A|--------------------------------|
E|--------------------------------|


2:22-2:25
e|--12--12-12-10--------------------------------------------------|
B|---------------13--12--12-12--10----10--10-10--12--10-----------|
G|---------------------------------12-------------------9--9-9-9--|
D|----------------------------------------------------------------|
A|----------------------------------------------------------------|
E|----------------------------------------------------------------|

2:26-2:29			          2:31              2:33-2:37
e|--------------------------------|   e|------------|   e|------------|
B|------------------10h12-10------|   B|--8-7h8-----|   B|--8-7h8-----|
G|----------9-11/12-----------12--|   G|--------9---|   G|--------9---|
D|--9-11-12-----------------------|x2 D|------------|   D|------------|x5
A|--------------------------------|   A|------------|   A|------------|
E|--------------------------------|   E|------------|   E|------------|


  2:37-2:41
e|--12--12-12-10--------------------------------------------------|
B|---------------13--12--12-12--10----10--10-10--12--10-----------|
G|---------------------------------12-------------------9--9-9-9--|
D|----------------------------------------------------------------|
A|----------------------------------------------------------------|
E|----------------------------------------------------------------|

  2:41-2:45
e|--------------------------------|
B|------------------10h12p10------|
G|----------9-11--12---------12---|
D|--9-11--12----------------------|x2
A|--------------------------------|
E|--------------------------------|

2:45-2:49             2:49-2:53       2:53-2:56
e|-----------------------|   |------------|   |---------------|
B|-----------------------|   |--8-7h8-----|   |--12-10h12-----|
G|-----------9-11--12----|   |-------9----|   |----------12---|
D|--9-11--12-------------|x4 |------------|x4 |---------------|x4
A|-----------------------|   |------------|   |---------------|
E|-----------------------|   |------------|   |---------------|

  2:57-3:04          3:04-3:12
e|---------------|    |----------------------------|
B|---------------|    |----------------------------|
G|--9--9-9-9-9---|    |---9---9---9---9---9~~~~--9-|
D|---------------|x8  |---9---9---9---9---9~~~~--9-|
A|---------------|    |---7---7---7---7---7~~~~--7-|
E|---------------|    |----------------------------|
Tap to rate this tab
 
# A B C D E F G H I J K L M N O P Q R S T U V W X Y Z