Song name
# A B C D E F G H I J K L M N O P Q R S T U V W X Y Z

Trans-siberian Orchestra - Christmas Cannon Rock tab

[---------------------------------------------------------------------------]
[---18---15-16-18---15-16-18------------------15-16-15----------------------]
[------------------------------------14-15-17-----------------15------------]
[------------------------------15-17--------------------15-17----------15-17]
[-----------------------------------------------------------------17-18-----]
[---------------------------------------------------------------------------]

[---------------------------------------------------------------------------]
[---------------------------------------------------------------------------]
[---------------------------------------------------------------------------]
[-15------15---15-------15-----17-15------------------------------15-17---17]
[------18----17---17-18----18--------18-17-15-17-15-or13-15-17-18-------18--]
[---------------------------------------------------18^---------------------]
                     R,↓                                 ↓MUSIC KEY↓
[------------------------------------] >>   let ring (depending on ammount
[----------------------------15-16-18]                of >'s that's how many              
[--------14-15-------14-15-17--------]                seconds to let ring)
[--15-17-------15-17-----------------] R,   slow down   i.e. ritardando.
[------------------------------------]
[------------------------------------]
This is my first tab, so don't mock me if it's wrong.   p.s. "↓" = alt+25
Peace out.
Tap to rate this tab
# A B C D E F G H I J K L M N O P Q R S T U V W X Y Z