Song name
# A B C D E F G H I J K L M N O P Q R S T U V W X Y Z

Trans-siberian Orchestra - Christmas Canon Rock tab

e--12-9-10-12-9-10-12--------------9-10-9------9----------------------------|
B--------------------------9-10-12--------10-12-----------------------------|
G---------------------9-11-----------------------------9-11-9--------9-11---|
D------------------------------------------------11-12-------12-11-12----12-|
A---------------------------------------------------------------------------|
E---------------------------------------------------------------------------|

------------------------------------------------------------9-10-12-12-|
-------------------------------------------9-10------9-10-12-----------|
-11-9-----------------------9-11----11-9-11-----9-11-------------------| Repeat
------12-11-9-11-9---9-11-12-----12------------------------------------|
-------------------12--------------------------------------------------|
-----------------------------------------------------------------------|
Tap to rate this tab
# A B C D E F G H I J K L M N O P Q R S T U V W X Y Z