Song name
# A B C D E F G H I J K L M N O P Q R S T U V W X Y Z

Trans-siberian Orchestra - Carol Of The Bells tab

Trans-Siberian Orchestra  Carol of the Bells
for Rhythm (2nd) Guitar
Standard Tuning

h = hammer on   p = pull off    ~ = let it ring . = palm mute   R = Full Rest

Chords Used (in order used):
E       (079987)                Em      (022000)                G       (244222)
C       (035533)                B       (024422)                D       (057755)

Intro (Clean):                  Repeat 4x and end with
  e|-------------------------------------|------------------------------------------|
  B|-------------------------------------|------------------------------------------|
4 G|-----8--7-----8--7-----8--7-----8--7-|-----8--7------8--7------8--7-------------|
4 D|---9--------9--------9--------9------|---9---------9---------9--------9---------|
  A|-9--------9--------9--------9--------|-9---------9---------9--------9-----------|
  E|-------------------------------------|------------------------------------------|

Verse 1 (Distortion): (starts approx. 0:34 into song)
  e|-------------------------------------|------------------------------------------|
  B|-------------------------------------|------------------------------------------|
6 G|-------------------------------------|------------------------------------------|
4 D|----2~--------R-------R--------R-----|----R---------R---------R--------R--------|
  A|----2~-------------------------------|------------------------------------------|
  E|----0~-------------------------------|------------------------------------------|

  e|-------------------------------------|------------------------------------------|
  B|-------------------------------------|------------------------------------------|
6 G|-------------------------------------|------------------------------------------|
4 D|----R---------R-------R--------R-----|----2~--------R---------R--------R--------|
  A|-------------------------------------|----2~------------------------------------|
  E|-------------------------------------|----0~------------------------------------|

  e|-------------------------------------|------------------------------------------|
  B|-------------------------------------|------------------------------------------|
6 G|-------------------------------------|------------------------------------------|
4 D|----R---------R-------R--------R-----|----2~--------R---------R--------R--------|
  A|-------------------------------------|----2~------------------------------------|
  E|-------------------------------------|----0~------------------------------------|

  e|-------------------------------------|------------------------------------------|
  B|-------------------------------------|-8-7h8----8-7h8------8-7h8-----8-7h8------|
6 G|-------------------------------------|-------9--------9----------9---------9----|
4 D|----R---------R-------R--------R-----|------------------------------------------|
  A|-------------------------------------|------------------------------------------|
  E|-------------------------------------|------------------------------------------|

Chorus 1 (Distortion):
  e|-------------------------------------|------------------------------------------|
  B|-------------------------------------|------------------------------------------|
6 G|-------------------555-55------------|----4~------------------4~----------------|
4 D|-222-22---555-55---555-55---222-22---|----4~---------R--------4~--------R-------|
  A|-222-22---555-55---333-33---222-22---|----2~------------------2~----------------|
  E|-000-00---333-33------------000-00---|------------------------------------------|

  e|-------------------------------------|------------------------------------------|
  B|-------------------------------------|------------------------------------------|
6 G|----4~--------4~------4~-------4~----|------------------------------------------|
4 D|----4~--------4~------4~-------4~----|----2---------R---------R--------R--------|
  A|----2~--------2~------2~-------2~----|----2-------------------------------------|
  E|-------------------------------------|----0-------------------------------------|


Verse 2 (Distortion): 
  e|-------------------------------------|------------------------------------------|
  B|-------------------------------------|------------------------------------------|
6 G|--9-9p7----5-5p4----2h4p2------------|------------------------------------------|
4 D|----------------------------5-5p4-2~-|----R---------R---------R--------R--------|
  A|-------------------------------------|------------------------------------------|
  E|-------------------------------------|------------------------------------------|

  e|-------------------------------------|------------------------------------------|
  B|-------------------------------------|------------------------------------------|
6 G|--9-9p7----5-5p4----2h4p2------------|------------------------------------------|
4 D|----------------------------5-5p4-2~-|----2~--------R---------R--------R--------|
  A|-------------------------------------|----2~------------------------------------|
  E|-------------------------------------|----0~------------------------------------|

Rest Breaks: (X3)
  e|-------------------------------------|------------------------------------------|
  B|-------------------------------------|------------------------------------------|
6 G|-------------------------------------|------------------------------------------|
4 D|----R---------R-------R--------R-----|----R---------R---------R--------R--------|
  A|-------------------------------------|------------------------------------------|
  E|-------------------------------------|------------------------------------------|

Verse 3 (Distortion): (X3) (starts approx. 1:57 into song)
  e|-------------------------------------|------------------------------------------|
  B|-------------------------------------|------------------------------------------|
6 G|-------------------------------------|------------------------------------------|
4 D|---2...-----2...-----2...-----2...---|---2...-----2...------2...-----2...-------|
  A|---2...-----2...-----2...-----2...---|---2...-----2...------2...-----2...-------|
  E|---0...-----0...-----0...-----0...---|---0...-----0...------0...-----0...-------|

Chorus 2 (Distortion):
  e|-------------------------------------|------------------------------------------|
  B|-------------------------------------|------------------------------------------|
6 G|-------------------555-55------------|----4~------------------4~----------------|
4 D|-222-22---555-55---555-55---222-22---|----4~---------R--------4~--------R-------|
  A|-222-22---555-55---333-33---222-22---|----2~------------------2~----------------|
  E|-000-00---333-33------------000-00---|------------------------------------------|

Bridge (Distortion):
  e|-------------------------------------|------------------------------------------|
  B|-------------------------------------|------------------------------------------|
6 G|-------------------------------------|------------------------------------------|
4 D|----R------2...-------R-------2...---|---2...-----2...------2...-----2...-------|
  A|----R------2...-------R-------2...---|---2...-----2...------2...-----2...-------|
  E|----R------0...-------R-------0...---|---0...-----0...------0...-----0...-------|

Chorus 3 (Distortion):
  e|-------------------------------------|------------------------------------------|
  B|-------------------------------------|------------------------------------------|
6 G|-------------------555-55------------|----4~------------------4~----------------|
4 D|-222-22---555-55---555-55---222-22---|----4~---------R--------4~--------R-------|
  A|-222-22---555-55---333-33---222-22---|----2~------------------2~----------------|
  E|-000-00---333-33------------000-00---|------------------------------------------|

  e|-------------------------------------|
  B|-------------------------------------|
6 G|----4~--------4~------4~-------4~----|
4 D|----4~--------4~------4~-------4~----|
  A|----2~--------2~------2~-------2~----|
  E|-------------------------------------|



Outro (Distortion):
  e|-------------------------------------|------------------------------------------|
  B|-------------------------------------|------------------------------------------|
6 G|----9~--------7~------5~-------4~----|----9~--------7~--------5~-------4~-------|
4 D|----9~--------7~------5~-------4~----|----9~--------7~--------5~-------4~-------|
  A|----7~--------5~------3~-------2~----|----7~--------5~--------3~-------2~-------|
  E|-------------------------------------|------------------------------------------|

  e|-------------------------------------|------------------------------------------|
  B|-------------------------------------|------------------------------------------|
6 G|----9~--------7~------9~-------7~----|----9~--------7~--------9~-------7~-------|
4 D|----9~--------7~------9~-------7~----|----9~--------7~--------9~-------7~-------|
  A|----7~--------5~------7~-------5~----|----7~--------5~--------7~-------5~-------|
  E|-------------------------------------|------------------------------------------|

  e|-------------------------------------|---------------------------------------|---|
  B|-------------------------------------|---------------------------------------|---|
6 G|--------------4~------5~-------7~----|----9~---------------------------------|-9-|
4 D|----2~--------4~------5~-------7~----|----9~---------------------------------|-9-|
  A|----2~--------2~------3~-------5~----|----7~---------------------------------|-7-|
  E|----0~-------------------------------|---------------------------------------|---|

This is my first posted Tab.... I had trouble finding tabbed out version for the 
2nd guitar in this song so I made one.

Hope you guys like!
Tap to rate this tab
 
# A B C D E F G H I J K L M N O P Q R S T U V W X Y Z