Guitaretab - guitar tabs
Song name
# A B C D E F G H I J K L M N O P Q R S T U V W X Y Z

Trans Siberian Orchestra - First Snow tab

This song is performed by the Trans-Siberian Orchestra. It is all instrumental.

First Snow

Intro:

E----5-------5-------3-------5-------5----|
B---7-7-----5-5-----3-3-----5-5-----7-7---|
G--7---7---6---6---4---4---6---6---7---7--|
D-0-------0-------0-------0-------0-------|
A-----------------------------------------|
E-----------------------------------------|

----5-------3-------5----|E
---5-5-----3-3-----5-----|B
--6---6---4---4---6--6---|G
-0-------0-------0-------|D
-------------------------|A
-------------------------|E

Main:

E-7-0-7-0-0-7-7-0-7--7-0-7-0-0-7-7--|E
B-7-5-7-3-5-7-7-5-7--7-5-7-3-5-7-7--|B
G-7-6-7-4-6-7-7-6-7--7-6-7-4-6-7-7--|G
D-0-0-0-0-0-0-0-0-0--0-0-0-0-0-0-0--|D
A-----------------------------------|A
E-----------------------------------|E

(Short pause)

(Main)5x

E-1-1--1---3-3--3----|E
B-1--1--1--3--3--3---|B
G-2---2--2-4---4--4--|G
D-3--------5---------|D
A--------------------|A
E--------------------|E

Then after that, play a D chord with strumming up and down nine times.
After that, play an A chord with seven up and down strums.
[ Tab from: http://www.guitaretab.com/t/trans-siberian-orchestra/44868.html ]
(Main)4x
E-1-1--1---3-3--3----|E
B-1--1--1--3--3--3---|B
G-2---2--2-4---4--4--|G
D-3--------5---------|D
A--------------------|A
E--------------------|E

Then after that, play a D chord with strumming up and down nine times.
After that, play an A chord with seven up and down strums.

E-2--4--5--77-5-4-5-4-0--|E
B-3--5--6--88-6-5-6-5-0--|B
G-2--4--5--77-5-4-5-4-0--|G
D-------------------------|D
A-------------------------|A
E-------------------------|E 4x ending on D

(Main)6x

Play this on last time:

E-7-0-7-0-0-7-7-0-7--7-0-7-0-0-0--0--0---0-0-0--0--0---|
B-7-5-7-3-5-7-7-5-7--7-5-7-3-5--5--5--5--3-5--5--5--5--|
G-7-6-7-4-6-7-7-6-7--7-6-7-4-6---6--6--6-4-6---6--6--6-|
D-0-0-0-0-0-0-0-0-0--0-0-0-0-0-----------0-0-----------|
A------------------------------------------------------|
E------------------------------------------------------|

-0-0-0--0--0--0--0----2--|E
-3-5--5--5--5--5--5---3--|B
-4-6---6--6--6--6--6--2--|G
-0-0------------------0--|D
-------------------------|A
-------------------------|E

That is the whole song, or at least I think it is the whole thing. Please leave any 
comments or corrections. I am not very good at tabbing and this was my first time submitting anything.
Related for First Snow tab
First Snow chords by Trans Siberian Orchestra