Guitaretab - guitar tabs
Song name
# A B C D E F G H I J K L M N O P Q R S T U V W X Y Z

Trans Siberian Orchestra - Ornament tab

Ornament, song 10 on Christmas Eve and Other Stories
(Standard Tuning)
(.41)
E--------------------------------------|
B--------------------------------------|
G-4-2-|--2-7---4|----------7-------7-7-|
D-4-2-|2-2-7---4|(x3)-5-7-7-7x-7x-7-7-|
A-2-0-|2-0-5-4-2|------5-7-5-5x-5x-5-5-|
E-----|0--------|------3-5-------------|
(1.48)
E----------------------------------------------|
B----------------------------------------------|
G-4-2-|--2-7---4|----------7-------7-7-7-7-7-7-|
D-4-2-|2-2-7---4|(x3)-5-7-7-7x-7x-7-7-7-7-7-7-|
A-2-0-|2-0-5-4-2|------5-7-5-5x-5x-5-5-5-5-5-5-|
E-----|0--------|------3-5---------------------|
(2.52)
E-------15b17-14------------------/21-21b22-19-|
B-14-15----------15-14b15----14-15-------------|
G-------------------------14-------------------|
D----------------------------------------------|
A----------------------------------------------|
E----------------------------------------------|

E-17-14-17-17-14~-|
B-----------------|
G-----------------|
D-----------------|
A-----------------|
E-----------------|
(3.05)
E-----------------------------------|
B-------------------17~-------------|
G-16-18-19-16-18-19----19-18-16-----|
D-------------------------------19~-|
A-----------------------------------|
E-----------------------------------|
(3.11)
E-------------------17-21b22-21-19-17-|
B-------------17-19-------------------|
G----16-18-19-------------------------|
D-19----------------------------------|
A-------------------------------------|
E-------------------------------------|

E-14--------------------|
B----17-15-14-15-15b17r-|
G-----------------------|
D-----------------------|
A-----------------------|
E-----------------------|
(slow release then fades out)

-End

Key:
B=bend
R=release
~=vibro
x=dead note
/=slide into
[ Tab from: http://www.guitaretab.com/t/trans-siberian-orchestra/55044.html ]
Related for Ornament tab