Guitaretab - guitar tabs
Song name
# A B C D E F G H I J K L M N O P Q R S T U V W X Y Z

Trans Siberian Orchestra - Mephistopheles tab

#5,Mephistopheles on Beethoven CD
Standard Tuning
(.39)
E------------------------------------------------|
B------------------------------------------------|
G------------------------7-9---7-9---7-9---7-7---|
D-4444-4444-4444-4444-2-7-9-2-7-9-2-7-9-2-7-7-9-|
A-2222-2222-2222-2222-2-5-7-2-5-7-2-5-7-2-5-5-7-|
E----------------------0-----0-----0-----0-----0-|
  *******************
(1.31)
E------------------------------------|
B------------------------------------|
G------------------7-9---7-9---7-9---|
D-4444-4444-4444-2-7-9-2-7-9-2-7-9-2-|
A-2222-2222-2222-2-5-7-2-5-7-2-5-7-2-|
E----------------0-----0-----0-----0-|
  **************
(1.54)
E-----------------------|
B-----------------------|
G-----------------------|
D-5-7-5-7-5-7-5-7-555-7-|
A-3-5-3-5-3-5-3-5-333-5-|
E-----------------------|

Then Moonlight Sonata on Piano
*=Palm Mute

-End
[ Tab from: http://www.guitaretab.com/t/trans-siberian-orchestra/55047.html ]
Related for Mephistopheles tab