Song name
# A B C D E F G H I J K L M N O P Q R S T U V W X Y Z

Trans Siberian Orchestra - Dreams Of Candlelight tab

The Dreams of Candlelight, #10 on Beethoven's Last Night
Standard Tuning
(.56)
E-----------------------------|
B-----------------------------|
G-7-5-3-7-5-3-7-5-3---3-3-3---|
D-7-5-3-7-5-3-7-5-3-3-3-3-3-5-|
A-5-3-1-5-3-1-5-3-1-3-1-1-1-3-|
E-------------------1---------|
At (2.13) Repeat above

(2.34)
E-----------------|
B-----------------|
G---5-7-5-3---3-5-|
D-3-5-7-5-3-3-3-5-|
A-3-3-5-3-1-3-1-3-|
E-1---------1-----|
REPEAT
(3.10)
E-----------------------------|
B-----------------------------|
G-7-5-3-7-5-3-7-5-3---3-3-3---|
D-7-5-3-7-5-3-7-5-3-3-3-3-3-5-|
A-5-3-1-5-3-1-5-3-1-3-1-1-1-3-|
E-------------------1---------|

-End
Tap to rate this tab
 
# A B C D E F G H I J K L M N O P Q R S T U V W X Y Z