Guitaretab - guitar tabs
Song name
# A B C D E F G H I J K L M N O P Q R S T U V W X Y Z

Trans Siberian Orchestra - Ill Keep Your Secrets tab

lI'll Keep Your Secrets, #12 on Beethoven's Last Night
 DOWN tuning
(.51)
E-----------------|
B-----------------|
G-4-4-----4-4-----|
D-4-4-2-4-4-4-2-4-|
A-2---2-4-2---2-4-|
E-----0-2-----0-2-|
(1.16)
E-----------------|
B-----------------|
G-----4-4-4-4-4-4-|
D-2-4-4-4-4-4-4-4-|
A-2-4-----2-----2-|
E-0-2-------------|
(2.04)             (2.29)
E-----------------------------------|
B-----------------------------------|
G-4-4-----4-4-----------4-4-4-4-4-4-|
D-4-4-2-4-4-4-2-4--2-4-4-4-44-4-4-|
A-2---2-4-2---2-4--2-4-----2-----2-|
E-----0-2-----0-2--0-2-------------|
(2.42)           (2.50)
E----------------|---------|
B----------------|---------|
G-6-6-6-6-6-6-6--|-----4-6-|
D-6-6-6-6-6-6-6--|-4-6-4-6-|
A-----4-----4-4--|-4-4-2-4-|
E----------------|-2-2-----|
|Repeat until end|

-End
[ Tab from: http://www.guitaretab.com/t/trans-siberian-orchestra/55051.html ]
Related for Ill Keep Your Secrets tab