Guitaretab - guitar tabs
Song name
# A B C D E F G H I J K L M N O P Q R S T U V W X Y Z

Trans Siberian Orchestra - This Is Who You Are tab

This is who you are, #17 on Beethoven CD
Standard Tuning
(.40)
E--------------------------------------------|
B--------------------------------------------|
G------------4-2-4---4-2-4---4-2-4---4-2-4---|
D----------2-4-2-4-2-4-2-4-2-4-2-4-2-4-2-4-6-|
A-2-22-2-2-2-0-2-0-2-0-2-2-2-0-2-2-2-0-2-4-|
E-2-2-2-2-0-------0-------0-------0---------|
  ********
(1.41)[REPEATED MANY TIMES]
E-------------------|
B-------------------|
G-------------------|
D-------------------|
A-2-2-2-2-----------|
E-2-2-2-2[000-000--|
  ****************
(2.22) [repeated many times]
E------------------------|
B------------------------|
G---------2-2------------|
D-4-4-6-6-2-2-2----------|
A-4-4-6-6-0-0-2----------|
E-2-2-4-4-----0[000-000--|
                *******
(3.07) [REPEATED MANY TIMES]
E---------------------------|
B---------------------------|
G-2-4-2-4-2-4-4-4-----------|
D-2-4-2-4-2-4-4-4-----------|
A-0-2-0-2-0-2-2-2-----------|
E-----------------[000-000--|
                   *******
(3.42)
E-----------|
B-----------|
G-2-4-4-4---|
D-2-4-4-4-2-|
A-0-2-2-2-2-|
E---------0-|

*=PALM MUTE

-END
[ Tab from: http://www.guitaretab.com/t/trans-siberian-orchestra/55055.html ]
Related for This Is Who You Are tab