Song name
# A B C D E F G H I J K L M N O P Q R S T U V W X Y Z

Trans Siberian Orchestra - Boughs Of Holly tab

Rest of the song:
http://www.ultimate-guitar.com/tabs/t/trans-siberian_orchestra/boughs_of_holly_tab.htm

The part that he could not get (not transposed):

  2  3    2    1     2   1     2   1
|-------------|---------|---------|-----|
|--12h13p12/8-|---------|---------|-----|
|-------------|-7/5/4p5-|-4p0-----|-----|
|-------------|---------|-----0---|-----|
|-------------|---------|-------3-|-2~--|
|-------------|---------|---------|-----|

Then:
|-----------|--------------|-15~--|
|-----------|-12----15--12-|------|
|-------/12-|----12--------|------|
|-----0-----|--------------|------|
|-2-3-------|--------------|------|
|-----------|--------------|------|
or
|-----------|------10/7/15~--|
|-----------|-12/8-----------|
|-------/12-|----------------|
|-----0-----|----------------|
|-2-3-------|----------------|
|-----------|----------------|


--Brazucs
Tap to rate this tab
# A B C D E F G H I J K L M N O P Q R S T U V W X Y Z