Guitaretab - guitar tabs
Song name
# A B C D E F G H I J K L M N O P Q R S T U V W X Y Z

Trans Siberian Orchestra - Faith Noel tab

I'm pleased to submit the first song off their new CD "The Lost Christmas Eve" Song
1 "Faith Noel."
I have been working for weeks on these songs to get them out before Christmas.  There
will probably be songs I redo for revisions and other reasons, but only if these tabs
aren't top quality, or no where near what they should be.  Here is Faith Noel.
(Standard Tuning)
(.09)   (.23)
E---------------------------------------------|
B---------------------------10-12-13-12-10----|
G-5-5----9----------9-10-12----------------12-|
D-5-5------12-10-12---------------------------|
A-3-3-----------------------------------------|
E---------------------------------------------|

E---------------------------------------|
B-10-12-13-12-10----10-12-12b13---------|
G----------------12-------------12-10-9-|
D---------------------------------------|
A---------------------------------------|
E---------------------------------------|

E--------------------------------------|
B--------------------10-12-13-12-10----|
G-9----------9-10-12----------------12-|
D---12-10-12---------------------------|
A--------------------------------------|
E--------------------------------------|

E-------------------------------------|
B-10-12-13-12-10---10-12-12b13--------|
G----------------12-----------12-10-9-|
D-------------------------------------|
A-------------------------------------|
E-------------------------------------|
(1.02)
E-12----------12-13[13b15~]-20-19-17-19-20-22-22b24r22-|
B----15-13-15------------------------------------------|
G------------------------------------------------------|
D------------------------------------------------------|
A------------------------------------------------------|
E------------------------------------------------------|
[slow bend up]

E-20-19h20p19p17----17-19-20------------|
B----------------20~---------20-[17b18--|
G---------------------------------------|
D---------------------------------------|
A---------------------------------------|
E---------------------------------------|
[bend and hold, then slow release]


(1.30)
E-----------------------------------------12~-|
B--------5/8-7---10--8-10-11-10-8/13----13----|
G------5-------7----------------------12------|
D----5----------------------------------------|
A-/3------------------------------------------|
E---------------------------------------------|
(1.45)
E-----------------12-15-14----17-|
B----13-----13-15----------15----|
G-/12---/12----------------------|
D--------------------------------|
A--------------------------------|
E--------------------------------|

E-15-17-17b18r17-15-20\20-20-------------------------|
B----------------------------17-17-20-20-20----------|
G-------------------------------------------17-17-17-|
D----------------------------------------------------|
A----------------------------------------------------|
E----------------------------------------------------|

E-----------------------------------|
B-17-17-17--------------------------|
G-------------------17-17-17--------|
D----------17-17-17-----------------|
A----------------------------19-19\-|
E-----------------------------------|
(2.02) Very hard to make out, This probably isn't right,
but it's the idea.

E----------------------------------|
B-------17-20-17----17-------------|
G----17----------17-------17-19-17-|
D-17-------------------17----------|
A----------------------------------|
E----------------------------------|

E-------------------------------|
B-------------------------------|
G-------------------------------|
D-------17-19-17----------------|
A-17-19----------19-17----17----|
E----------------------20----20-|

E----------------17--------|
B----------19-19----19-----|
G-------19-------------19--|
D----19--------------------|(x4)
A-17-----------------------|
E--------------------------|
[ Tab from: http://www.guitaretab.com/t/trans-siberian-orchestra/55068.html ]

E-18-------------------------|
B----20----------------------|
G-------20----------------20-|
D----------20----------20----|
A-------------22-18-22-------|
E----------------------------|
(2.14) This could be off too.
E-20-19-17---------------------------------------|
B----------20-18-17------------------------------|
G-------------------19-17----------[17-17-17-17--|
D------------------------------------------------|
A------------------------------------------------|
E-------------------------20b21r20---------------|
[could be more]
(2.20)
E-15p12-15p12-------15p12-15p12--------|
B-------------13p12-------------13p12--|
G--------------------------------------|
D--------------------------------------|(x4)
A--------------------------------------|
E--------------------------------------|

E-17p12-17p12-------17p12-17p12-------|
B-------------15p12-------------15p12-|
G-------------------------------------|
D-------------------------------------|(x4)
A-------------------------------------|
E-------------------------------------|

E-14b15-12----14b15-14-12----14b15-12----14b15-14-12------|
B----------15-------------15----------15------------15-12-|
G---------------------------------------------------------|
D---------------------------------------------------------|
A---------------------------------------------------------|
E---------------------------------------------------------|
Now O Come all Ye Faithful
(2.45)
E------------------12h13p12p10-12-13-12-10----------------|
B-13-13---13-15----------------------------13-13-12-10-12-|
G------12-------12----------------------------------------|
D---------------------------------------------------------|
A---------------------------------------------------------|
E---------------------------------------------------------|

E----10-12-------------------------12-13-15-|
B-13-------12-13p12-10-------13-15----------|
G----------------------12-12----------------|
D-------------------------------------------|
A-------------------------------------------|
E-------------------------------------------|

E-13-12-13-13b15r13-12-13p12-10-12-------------------|
B----------------------------------13-14b15-12-10----|
G-------------------------------------------------12-|
D----------------------------------------------------|
A----------------------------------------------------|
E----------------------------------------------------|
E---------------------12-12-13p12p10-12-13-----------|
B-13-13-12-13-15-13------------------------12-10-----|
G------------------12--------------------------------|
D----------------------------------------------------|
A----------------------------------------------------|
E----------------------------------------------------|

E-12-13-12-------------------------------------|
B----------15-13-12----17b18-17-18p17p15-13-13-|
G-------------------14-------------------------|
D----------------------------------------------|
A----------------------------------------------|
E----------------------------------------------|
(3.57)
E-----12-15~\----12-15~\----12-15~\-----12/20-|
B---13---------13---------13----------13------|
G-12---------12---------12----------12--------|
D---------------------------------------------|
A---------------------------------------------|
E---------------------------------------------|

-End

*Key*
/= slide up
\= slide down
p= pull off
h= hammer on
~= vibro
b= bend
r= release

That is all.  I think this song is mostly correct, there will probably be errors on the
quick parts you can't hear too well in the song.  I'm pre-releasing this song, and the
rest of the CD will be submitted all at once, but enjoy this song for now, there will be
more soon!
Good Luck, Rock on, comments/corrections always welcome
Teamturboplasma@hotmail.com
Merry Christmas All
God Bless
 R.I.P. Daryl Pediford 
Related for Faith Noel tab