Song name
# A B C D E F G H I J K L M N O P Q R S T U V W X Y Z

Trans Siberian Orchestra - Back To The Reason Part Ii tab

Back to the Reason Part II, song 17 on The Lost Christmas Eve
(1/2 down tuning)

(1.15)
E-------------------------|
B-------------------------|
G-6-----4-6-----4-2-9-----|
D-6-7-2-4-6-7-2-4-2-9-9-7-|
A-4-7-2-2-4-7-2-2-0-7-9-7-|
E---5-0-----5-0-----0-7-5-|

E-----------------------------------|
B-----------------------------------|
G-9-----9-------4-------------------|
D-9-9-7-9-9-7-6-4-------------------|
A-7-9-7-7-9-7-6-2-2-2-2-2-2-2-2-2-2-|
E-0-7-5-0-7-5-4---------------------|
                  *****************
(might be more 2*'s)

E-------------------------|
B-------------------------|
G-9---2---9---2-4-9---2---|
D-9-6-2-4-9-6-2-4-9-6-2-4-|
A-7-6-0-4-7-6-0-2-7-6-0-2-|
E-0-4---2-0-4-----0-4---2-|

E----------|---------------|
B----------|---------------|
G-9---2-4--|9---2-4-| |x6--|
D-9-6-2-4--|9-6-2-4--------|
A-7-6-0-2--|7-6-0-2--------|
E-0-4------|0-4------------|

-End

*= Palm Mute

It's a really cool song, have fun with it...Rock on
Tap to rate this tab
 
# A B C D E F G H I J K L M N O P Q R S T U V W X Y Z