Guitaretab - guitar tabs
Song name
# A B C D E F G H I J K L M N O P Q R S T U V W X Y Z

Trans Siberian Orchestra - Christmas Nights In Blue tab

Christmas Nights In Blue, number 9 on The Lost Christmas Eve
(Standard Tune)
(.17)        (.25)
E---------------------|
B---------------------|
G---------4-----------|
D-5-5-5-5-4---5-5-5-5-|
A-5-5-5-5-2---5-5-5-5-|
E-3-3-3-3-----3-3-3-3-|
  *   *       *   *
E------------------------|
B------------------------|
G-2---4-6-7-9-11-4-6-7-9-|
D-2-4-4-6-7-9-11-4-6-7-9-|
A-0-4-2-4-5-7-9--2-4-5-7-|
E---2--------------------|
[ Tab from: http://www.guitaretab.com/t/trans-siberian-orchestra/55214.html ]
E---------------------|
B---------------------|
G-2---4-6-7-9---------|
D-2-4-4-6-7-9---------|
A-0-4-2-4-5-7-------4-|
E---2---------7-5-3-2-|
              *****
(1.17)       (1.30)
E---------------------|
B---------------------|
G---------4-----------|
D-5-5-5-5-4---5-5-5-5-|
A-5-5-5-5-2---5-5-5-5-|
E-3-3-3-3-----3-3-3-3-|
  *   *       *   *
(1.35)
E--------------------------------------------|
B--------------------------------------------|
G-2---4-6-7-9-11-4-6-7-9-2---4-6-7-9---------|
D-2-4-4-6-7-9-11-4-6-7-9-2-4-4-6-7-9---------|
A-0-4-2-4-5-7-9-2-4-5-7-0-4-2-4-5-7-------4-|
E---2----------------------2---------7-5-3-2-|
                                     *****
Repeats @ (3.11)

Whistle Solo

-End

Key
*= Palm Mute

This is a cool song to learn, have fun with it, Rock on
Related for Christmas Nights In Blue tab