Song name
# A B C D E F G H I J K L M N O P Q R S T U V W X Y Z

Trans Siberian Orchestra - Siberian Sleigh Ride tab

this is the faster part in the song that is played toward the middle.

background riff goes like this

E:--12--9-------------------7---9---7---------------|
B:----------10-------10-----------------10-------10-|
G:--------------9----------------------------9------|
D:--------------------------------------------------|
A:--------------------------------------------------|
E:--------------------------------------------------|

He plays that alot.

The lead part is short. it goes.

E:-14b15----14vvv----12vvv---|
B:---------------------------|
G:---------------------------|
D:---------------------------|
A:---------------------------|
E:---------------------------|

The timing isn't exact but the notes are.
Tap to rate this tab
# A B C D E F G H I J K L M N O P Q R S T U V W X Y Z