Song name
# A B C D E F G H I J K L M N O P Q R S T U V W X Y Z

Trans Siberian Orchestra - Wizards In Winter tab

----------------------------------------------------------------------------
         	 Wizards in Winter - Trans-Siberian Orchestra
----------------------------------------------------------------------------
Tabbed by: Doran Maya
Email: doranmaya@hotmail.com

Tuning: Standard



Intro 2: Play 2 Times
All Guitars
e|---------------------------------------|
B|---------------------------------------|
G|-------------------------------------4-|
D|-2-2---2-2-4-5-5---5-5-4-2-2---2-2---4-|
A|-2-2-2-2-2-4-5-5-5-5-5-4-2-2-2-2-2-2-2-|
E|-0-0---0-0-2-3-3---3-3-2-0-0---0-0-----|

Intro 2: Play 2 Times
All Guitars
e|---------------------------------------|
B|---------------------------------------|
G|-------------------------------------4-|
D|-2-----------5-----------2-----------4-|
A|-2-----------5-----------2-----------2-|
E|-0-----------3-----------0-------------|


Solo Intro 1
All Guitars
e|---------------------------------------|
B|---------------------------------------|
G|-4-------4-------4---4-4---4-4---------|
D|-4-------4-------4---4-4---4-4-7-6-4---|
A|-2-------2-------2---2-2---2-2-7-6-4---|
E|-------------------------------5-4-2---|

Solo 1 - All of Solo 1 is played twise here
Guitar 1
e|-19-17-15----17-15-------19-17-15----19-17-15-------|
B|----------19-------19-17----------19----------19-17-|
G|----------------------------------------------------|
D|----------------------------------------------------|
A|----------------------------------------------------|
E|----------------------------------------------------|

Solo 1
Guitar 2 & 3
e|----------------------------------------------------|
B|----------------------------------------------------|
G|----------------------------------------------------|
D|-2--------------------------------------------------|
A|-2--------------------------------------------------|
E|-0--------------------------------------------------|

Solo 1
Guitar 1 - these are 16th notes so it's pretty fast.
e|-19-17-15----17-15-------19-17-15----19-17-15-------|
B|----------19-------19-17----------19----------19-17-|
G|----------------------------------------------------|
D|----------------------------------------------------|
A|----------------------------------------------------|
E|----------------------------------------------------|

Solo 1
Guitar 2 & 3
e|----------------------------------------------------|
B|----------------------------------------------------|
G|----------------------------------------------------|
D|-5--------------------------------------------------|
A|-5--------------------------------------------------|
E|-3--------------------------------------------------|

Solo 1
Guitar 1
e|-19-17-15----17-15-------19-17-15----19-17-15------------|
B|----------19-------19-17----------19----------19-17-15~~-|
G|---------------------------------------------------------|
D|---------------------------------------------------------|
A|---------------------------------------------------------|
E|---------------------------------------------------------|

Solo 1
Guitar 2 & 3
e|---------------------------------------------------------|
B|---------------------------------------------------------|
G|-----------------------------------------------------4---|
D|-2---------------------------------------------------4---|
A|-2---------------------------------------------------2---|
E|-0-------------------------------------------------------|

The Solo Intro 1 is played here again.

Riff 1
All Guitars
e|-----------------------------------------------------------------|
B|-----------------------------------------------------------------|
G|-----------------------------------------------------------------|
D|-----------------------------------------------------------------|
A|-----------------------------------------------------------------|
E|-0-0-0-0-0-0-0-0-0-0-0-0-0-0-0-0-0-0-0-0-0-0-0-0-0-0-0-0-0-0-0-0-|

e|-----------------------------------------------------------------|
B|-----------------------------------------------------------------|
G|-----------------------------------------------------------------|
D|-----------------------------------------------------------------|
A|-----------------------------------------------------------------|
E|-0-0-0-0-0-0-0-0-0-0-0-0-0-0-0-0-0-0-0-0-0-0-0-0-0-0-0-0-0-0-0-0-|

The Solo Intro 1 is played here again.
Then The Entire Solo 1 is played here again including the repeat.

Solo Outtro
e|-------------------------|
B|-------------------------|
G|-4-------4-------4---4-4-|
D|-4-------4-------4---4-4-|
A|-2-------2-------2---2-2-|
E|-------------------------|

Riff 2: Play 4 times.
All Guitars 
e|---------------------------------------------------------------|
B|---------------------------------------------------------------|
G|---------------------------------------------------------------|
D|---------------------------------------------------------------|
A|---------------------------------------------------------------|
E|-0-0-0---0-0-0---0-0-0---0-0-0---0-0-0---0-0-0---0-0-0---0-0-0-|

Play Solo Intro 1
Play Solo 1

Solo Intro 2
e|-----------------------------|
B|-----------------------------|
G|-4-------4-------4-4-4-------|
D|-4-------4-------4-4-4-7-5-4-|
A|-2-------2-------2-2-2-7-5-4-|
E|-----------------------5-3-2-|

Solo 2 - All of Solo 2 is played twice here
Guitar 1
e|-19-17-15----17-15-------19-17-15----19-17-15-------|
B|----------19-------19-17----------19----------19-17-|
G|----------------------------------------------------|
D|----------------------------------------------------|
A|----------------------------------------------------|
E|----------------------------------------------------|

Solo 2
Guitar 2 & 3
e|----------------------------------------------------|
B|----------------------------------------------------|
G|----------------------------------------------------|
D|-2--------------------------------------------------|
A|-2--------------------------------------------------|
E|-0--------------------------------------------------|

Solo 2
Guitar 1
e|-19-17-15----17-15-------19-17-15----19-17-15-------|
B|----------19-------19-17----------19----------19-17-|
G|----------------------------------------------------|
D|----------------------------------------------------|
A|----------------------------------------------------|
E|----------------------------------------------------|

Solo 2
Guitar 2 & 3
e|----------------------------------------------------|
B|----------------------------------------------------|
G|----------------------------------------------------|
D|-5--------------------------------------------------|
A|-5--------------------------------------------------|
E|-3--------------------------------------------------|

Solo 2
Guitar 1
e|-19-17-15----17-15-------19-17-15----19-17-15-------|
B|----------19-------19-17----------19----------19-17-|
G|----------------------------------------------------|
D|----------------------------------------------------|
A|----------------------------------------------------|
E|----------------------------------------------------|

Solo 2
Guitar 2 & 3
e|----------------------------------------------------|
B|----------------------------------------------------|
G|----------------------------------------------------|
D|-2--------------------------------------------------|
A|-2--------------------------------------------------|
E|-0--------------------------------------------------|

Solo 2
Guitar 1
e|-19-17-15----17-15-------19-17-15----19-17-15-------|
B|----------19-------19-17----------19----------19-17-|
G|----------------------------------------------------|
D|----------------------------------------------------|
A|----------------------------------------------------|
E|----------------------------------------------------|

e|----------------------------------------------------|
B|----------------------------------------------------|
G|-4--------------------------------------------------|
D|-4--------------------------------------------------|
A|-2--------------------------------------------------|
E|----------------------------------------------------|

Outtro
All Guitars
e|---------------------------------------------------------------|
B|---------------------------------------------------------------|
G|---------------------------------------------------------------|
D|-2-2-2---2-2-2---2-2-2---2-2-2---2-2-2---2-2-2---2-2-2---2-2-2-|
A|-2-2-2---2-2-2---2-2-2---2-2-2---2-2-2---2-2-2---2-2-2---2-2-2-|
E|-0-0-0---0-0-0---0-0-0---0-0-0---0-0-0---0-0-0---0-0-0---0-0-0-|

e|---------------------------------------------------|
B|---------------------------------------------------|
G|---------------------------------------------------|
D|-2---2---2---2---2---2---2---2---2---------------2-|
A|-2---2---2---2---2---2---2---2---2---------------2-|
E|-0---0---0---0---0---0---0---0---0---------------0-|



| /  slide up
| \  slide down
| h  hammer-on
| p  pull-off
| ~  vibrato
| +  harmonic
| x  Mute note
============================================================================
Tap to rate this tab
# A B C D E F G H I J K L M N O P Q R S T U V W X Y Z