Song name
# A B C D E F G H I J K L M N O P Q R S T U V W X Y Z

Transformers - There Is No Plan tab

-------------------------------------------------------------------------------
                          There is no Plan - Transformers
-------------------------------------------------------------------------------
Tabbed by: Suroundsound
E-mail: adityaatman@gmail.com

Tuning: Standard

e|------------1-------0------------------------5---1---3---1-0---------------|
B|----3------3----1----------1-3---1---3------3----------------3---1---3-----|
G|----------2---------------0----------------2-------------------------------|
D|---------------------------------------------------------------------------|
A|---------------------------------------------------------------------------|
E|---------------------------------------------------------------------------|

e|------------1-------0-----------------------------1-0----------------------|
B|----3------3----1----------1-3---1---3------3-1-------3--------------------|
G|----------2---------------0----------------2-------------------------------|
D|---------------------------------------------------------------------------|
A|---------------------------------------------------------------------------|
E|---------------------------------------------------------------------------|

e|------------1-------0------------------------5-------3---------------------|
B|----3------------------------3-------3-----------------------3-------3-----|
G|---------------------------------------------------------------------------|
D|---------------------------------------------------------------------------|
A|---------------------------------------------------------------------------|
E|---------------------------------------------------------------------------|

e|---------------------------------------------------------------------------|
B|----1-------3--------------------------------------------------------------|
G|---------------------------------------------------------------------------|
D|---------------------------------------------------------------------------|
A|---------------------------------------------------------------------------|
E|---------------------------------------------------------------------------|


************************************

| /   slide up
| \   slide down
| h   hammer-on
| p   pull-off
| ~   vibrato
| +   harmonic
| x   Mute note
| b   Bend
| pb  Pre-bend
| br  Bend release
| pbr Pre-bend release
| brb Bend release bend

************************************
Tap to rate this tab
# A B C D E F G H I J K L M N O P Q R S T U V W X Y Z