Song name
# A B C D E F G H I J K L M N O P Q R S T U V W X Y Z

Transit War - Were Sleeping Better Now tab

-------------------------------------------------------------------------------
			     We're Sleeping Better Now - The Transit War
-------------------------------------------------------------------------------


Title: We're Sleeping Better Now

Artist: The Transit War
Album: !Ah Dischordia!
Tabbed by:hellomcfly417


Tuning: Drop D [D A D G B e]

Intro (listen for timing)
e|--------------------|
B|-77777777777777-----|
G|-xxxxxxxxxxxxxx-----|
D|-44444444444444--44-|
A|-----------------44-|
D|-----------------44-|

e|------------------------------------|
B|---7-77---77-7---7-77---------------|
G|---x-xx---xx-x---x-xx---------------| [x2]
D|-4-4-44-4-44-4-4-4-44--77779999-----|
A|-4------4------4-------77779999-----|
D|-4------4------4-------77779999-----|


Verse
e|--------------------------------------|
B|--------------------------------------|
G|--------------------------------------|
D|--4~-------0~-------7~-------0~-------|
A|--4~-------0~-------7~-------0~-------|
D|--4~-------0~-------7~-------0~-------|

e|-------------------------------------------------------------------|
B|-------------------------------------------------------------------|
G|-------------------------------------------------------------------|
D|--4444444444444444-0000000000000000-7777777777777777-00000000-0----|
A|--4444444444444444-0000000000000000-7777777777777777-00000000-0----|
D|--4444444444444444-0000000000000000-7777777777777777-00000000-0----|
    **************** **************** **************** *****


Chorus

e|-------------------------------------|
B|------7-77---77-7---7-77-------------|
G|------x-xx---xx-x---x-xx-------------| [x2]
D|----4-4-44-4-44-4-4-4-44--77779999---|
A|----4------4------4-------77779999---|
D|----4------4------4-------77779999---|


Verse [x1]

Chorus


Bridge

(Lead Guitar)
e|---------------------------0~~--|
B|---------------------------0~~--|
G|-11------------------------0~~--|
D|-x--[play-entire bridge]--------|
A|-9------------------------------|
D|--------------------------------|

(Rhythm Guitar)
e|-------------------------------------------------0~~--|
B|-------------------------------------------------0~~--|
G|-------------------------------------------------0~~--|
D|-4~------4~6/7-4~------4-4-44-6-7--44444444444444-----|
A|-4~------4~6/7-4~------4-4-44-6-7--44444444444444-----|
E|-4~------4~6/7-4~------4-4-44-6-7--44444444444444-----|
                                     **************

Pre-Chorus (softly play)
e|------------------------------------|
B|-----7-77---7-77---7-77-------------|
G|-----x-xx---x-xx---x-xx-------------|
D|-----4-44---4-44---4-44-------------|
A|---4------4------4-------77779999---|
D|---4------4------4-------77779999---|


Final Chorus
e|-----------------------------------|
B|----7-77---77-7---7-77-------------|
G|----x-xx---xx-x---x-xx-------------| [x2]
D|--4-4-44-4-44-4-4-4-44--77779999---|
A|--4------4------4-------77779999---|
D|--4------4------4-------77779999---|


Outro
e|--------------------------------------------|
B|-------7777------7777------7777------7777---|
G|-------xxxx------xxxx------xxxx------xxxx---|
D|--4444-4444-4444-4444-4444-4444-4444-4444---|
A|--4444------4444------4444------4444--------|
D|--4444------4444------4444------4444--------|

e|------------------------------------------|
B|-------7777------7777------7777-----------|
G|-------xxxx------xxxx------xxxx-----------|
D|--4444-4444-4444-4444-4444-4444-4444444\--|
A|--4444------4444------4444------4444444\--|
D|--4444------4444------4444------4444444\--|


| /  slide up
| \  slide down
| h  hammer-on
| p  pull-off
| ~  vibrato
| +  harmonic
| x  Mute note
===============================================================================
Tap to rate this tab
 
# A B C D E F G H I J K L M N O P Q R S T U V W X Y Z