Song name
# A B C D E F G H I J K L M N O P Q R S T U V W X Y Z

Transit - Something Left Behind tab

I looked at some acoustic videos of the song, and this is the best I can get from what Tim plays,

Tuning is eb

Intro x2 (0:00-0:18)

e|-------10--0------0--0--0--0-0-0---------10-------------10-|
B|-----8-----8/10\8-15-12-10-8-7-8-------8-------------10----|
G|---7---------------------------------7------------11-------|
D|10--------------------------------10-----------12----------|
A|-----------------------------------------------------------|
E|-----------------------------------------------------------|

Verse x2 (0:19-0:37) Listen for strumming.

e|0--------0---------------0-------(0)-------|
B|3--------3---------------3--------3--------|
G|0--------0---------------0--------0--------|
D|2--------0----70707970---2--------4--------|
A|3--------0----xxxxxxxx---3--------5--------|
E|x--------2----55555555---x--------x--------|

Interlude x1 (0:37-1:05)

e|7-7-7-7-7-7-7-7-7-7-7-7-7-7-7-7--0----------------|
B|8-8-8-8-8-8-8-8-8-8-8-8-8-8-8-8--0----------------|
G|7-7-7-7-7-7-7-7-7-7-7-7-7-7-7-7--5----------------|
D|---------------------------------5----------------|
A|---------------------------------3----------------|
E|---------------------------------x----------------|

e|(0)---------------0----------------|
B|(0)---------------0----------------|
G|(0)---------------5----------------|
D|-7----------------5----------------|
A|(5)---------------3----------------|
E|-5----------------x----------------|

e|--------------------------------------------------------------------------|
B|--------------------------------------------------------------------------|
G|--------------------------------------------------------------------------|
D|--------------------------------------------------(4)(4)(4)(4)(4)(4)(4)(4)|
A|3-3-3-3-3-3-3-3--3-3-3-3-3-3-3-3--3-3-3-3-3-3-3-3--5--5--5--5--5--5--5--5-|
E|3-3-3-3-3-3-3-3--2-2-2-2-2-2-2-2--3-3-3-3-3-3-3-3--5--5--5--5--5--5--5--5-|
  . . . . . . . .  . . . . . . . .  . . . . . . . .  .  .  .  .  .  .  .  .


Verse 2 x2 (1:06-1:25)

e|0--------0---------------0-------(0)-------|
B|3--------3---------------3--------3--------|
G|0--------0---------------0--------0--------|
D|2--------0----70707970---2--------4--------|
A|3--------0----xxxxxxxx---3--------5--------|
E|x--------2----55555555---x--------x--------|

Interlude 2 (1:26-1:53)

e|0----------------0----------------|\
B|0----------------0----------------| \ 
G|0----------------5----------------|  \____ x2
D|7----------------5----------------|  /
A|x----------------3----------------| /
E|5----------------x----------------|/ 

e|-----------------------------------------------------------|\
B|-----------------------------------------------------------| \
G|--------------------------------------(0)(0)(0)(0)(0)(0)(0)|  \___ x1
D|--0----0-------0----0-------0----0----(4)(4)(4)(4)(4)(4)(4)|  /
A|-3--3---3-----3--3---3-----3--3---3----5--5--5--5--5--5--5-| /
E|3----3---3--2-----2---2---3----3---3---5--5--5--5--5--5--5-|/


Verse 3 (1:54-2:12)


e|0--------0---------------0-------(0)-------|
B|3--------3---------------3--------3--------|
G|0--------0---------------0--------0--------|
D|2--------0----70707970---2--------4--------|
A|3--------0----xxxxxxxx---3--------5--------|
E|x--------2----55555555---x--------x--------|

Bridge 1 (2:13-2:51)

e|--------10---------------10----------------10---------------10------|
B|12p10-10--10-----12p10-10--10------12p10-10--10-----12p10-10--10----|
G|------------12p0--------------12p0------------12p0--------------12p0|
D|--------------------------------------------------------------------|
A|--------------------------------------------------------------------|
E|--------------------------------------------------------------------|

e|0----------------|\
B|0----------------| \
G|5----------------|  \_____Do this whole thing twice 
D|5----------------|  /
A|3----------------| /
E|x----------------|/

e|-----------------------------------------------------------------|
B|0000--------0000--------0000--------0000--------0----------------|
G|7777--XXXX--7777--XXXX--7777--XXXX--7777--XXXX--5----------------|
D|7777--XXXX--7777--XXXX--7777--XXXX--7777--XXXX--5----------------|
A|xxxx--XXXX--xxxx--XXXX--xxxx--XXXX--xxxx--XXXX--3----------------|
E|5555--XXXX--5555--XXXX--5555--XXXX--5555--XXXX--x----------------|


e|------------------------------------------------|
B|0000--------0000--------0000--------0000--------|
G|7777--XXXX--7777--XXXX--7777--XXXX--7777--XXXX--|
D|7777--XXXX--7777--XXXX--7777--XXXX--7777--XXXX--|
A|xxxx--XXXX--xxxx--XXXX--xxxx--XXXX--xxxx--XXXX--|
E|5555--XXXX--5555--XXXX--5555--XXXX--5555--XXXX--|

e|------------------------|
B|0-0000-0----0-0000-0----|
G|5-5555-5----5-5555-5----|
D|5-5555-5----5-5555-5----|
A|3-3333-3----3-3333-3----|
E|x-xxxx-x----x-xxxx-x----|

Intro x2 (2:52-3:10)


e|-------10--0------0--0--0--0-0-0---------10-------------10-|
B|-----8-----8/10\8-15-12-10-8-7-8-------8-------------10----|
G|---7---------------------------------7------------11-------|
D|10--------------------------------10-----------12----------|
A|-----------------------------------------------------------|
E|-----------------------------------------------------------|

Outro 1 x1 (3:11-3:28)

e|0-0-0-0-0-0-0-0--0-0-0-0-0-0-0-0--0-0-0-0-0-0-0-0--0-0-0-0-0-0-0-0|
B|3-3-3-3-3-3-3-3--3-3-3-3-0-0-0-0--3-3-3-3-3-3-3-3--3-3-3-3-3-3-3-3|
G|0-0-0-0-0-0-0-0--0-0-0-0-7-7-7-7--0-0-0-0-0-0-0-0--0-0-0-0-0-0-0-0|
D|2-2-2-2-2-2-2-2--0-0-0-0-7-7-7-7--2-2-2-2-2-2-2-2--4-4-4-4-4-4-4-4|
A|3-3-3-3-3-3-3-3--0-0-0-0-x-x-x-x--3-3-3-3-3-3-3-3--5-5-5-5-5-5-5-5|
E|x-x-x-x-x-x-x-x--2-2-2-2-5-5-5-5--x-x-x-x-x-x-x-x--x-x-x-x-x-x-x-x|
  . . . . . . . .  . . . . . . . .  . . . . . . . .  . . . . . . . . 

e|0-0-0-0-0-0-0-0--0-0-0-0-0-0-0-0--0-0-0-0-0-0-0-0----0-0-0---0-0-0|
B|3-3-3-3-3-3-3-3--3-3-3-3-0-0-0-0--3-3-3-3-3-3-3-3----3-3-3---3-3-3|
G|0-0-0-0-0-0-0-0--0-0-0-0-7-7-7-7--0-0-0-0-0-0-0-0--X-0-0-0-X-0-0-0|
D|2-2-2-2-2-2-2-2--0-0-0-0-7-7-7-7--2-2-2-2-2-2-2-2--X-4-4-4-X-4-4-4|
A|3-3-3-3-3-3-3-3--0-0-0-0-x-x-x-x--3-3-3-3-3-3-3-3--X-5-5-5-X-5-5-5|
E|x-x-x-x-x-x-x-x--2-2-2-2-5-5-5-5--x-x-x-x-x-x-x-x--X-x-x-x-X-x-x-x|
  . . . . . . . .  . . . . . . . .  . . . . . . . .

Outro 2 (3:29-4:02) Is basically the same thing, just don't palm mute.

I'm fairly sure that this is how you play it, some parts may be wrong, but it 
should be close to perfect.

Legend:
P = Pull Off
x = mute string
(0) = Ghost note, strum if you'd like.
Tap to rate this tab
# A B C D E F G H I J K L M N O P Q R S T U V W X Y Z