Song name
# A B C D E F G H I J K L M N O P Q R S T U V W X Y Z

Transit - Listen And Forgive tab

Watched a few acoustic videos, this is the best I can make of it, I'll be tabbing 
both Torre and Tim, 

Tuning is: E, G#, B, F#, B, D#

-------------------------Tim's Guitar------------------------

Intro/Verse: (0:00-0:16)

e|------------------------0---------0-|\
B|----4-0------0----------0---------0-| \
G|--0--------0---0--------0---------0-|  \____Do This Four Times.
D|---------5--------------5---------5-|  /
A|3-----------------------------------| /
E|--------------------4-4------5-5----|/


Chorus:(0:17-0:33)(Strumming Pattern is easy to figure out)

e|-x----x----x----------|\ 
B|-0----0----x----4/5555| \
G|-0----9----0----0-0000|  \____ Do This Four Times.
D|-0----0----0----0-0000|  /
A|-8----0----0----0-0000| /
E|-0----7----4----0-0000|/


Intro/Verse: (0:34-0:56)

e|-------------------------0--------0-|\
B|----4-0------0-----------0--------0-| \
G|--0--------0---0---------0--------0-|  \____Do This Four Times.
D|---------5---------------5--------5-|  /
A|3-----------------------------------| /
E|--------------------4-4------5-5----|/


*Not too sure about this part*

e|------------------------------|\
B|12--12--12--12--12--12--12~---| \
G|12--12--12--12--12--12--12~---|  \____Strumming same as Chorus
D|0---0---0---0---0---0---0~----|  /
A|0---12--0---12--0---12--0~----| /
E|12------12------12------12~---|/


Chorus: (0:57-1:14)

e|-x----x----x----------|\ 
B|-0----0----x----4/5555| \
G|-0----9----0----0-0000|  \____ Do This Four Times.
D|-0----0----0----0-0000|  /
A|-8----0----0----0-0000| /
E|-0----7----4----0-0000|/


Bridge: (1:15-1:52)

e|0~--------x0----x0----|\
B|0~--------x0----x0----| \ 
G|0~--------x0----x0----|  \____Listen when to hit these. One Time.
D|0~--------x0----x0----|  /
A|----------------------| /
E|----------------------|/

e|--------------------|\
B|--------------------| \
G|9----4----5----14---|  \____ Do This Once, Strumming pattern is like Chorus
D|0----0----0----0----|  /
A|0----0----0----0----| / 
E|7----2----4----12---|/

Torre will play his riff once, then Tim will come in with this,

e|-------------------------0--------0-|\
B|----4-0------0-----------0--------0-| \
G|--0--------0---0---------0--------0-|  \____Do This Once.
D|---------5---------------5--------5-|  /
A|3-----------------------------------| /
E|--------------------4-4------5-5----|/

e|--------------------|\
B|--------------------| \
G|9----4----5----14---|  \____ Play This Three Times
D|0----0----0----0----|  /
A|0----0----0----0----| / 
E|7----2----4----12---|/

*On The Fourth Time Play This*

e|--------------------------------|
B|--------------------------------| 
G|9----4----5-5-5-5-5----14-14-14-|
D|0----0----0-0-0-0-0----0--0--0--|  
A|0----0----0-0-0-0-0----0--0--0--| 
E|7----2----4-4-4-4-4----12-12-12-|
              . . . . 

e|-------------0-----------0---------|\
B|----4-0--------0---------0---------| \
G|--0--------0-------------0---------|  \____Do This Once.
D|---------5---------------5---------|  /
A|3----------------------------------| /
E|--------------------4-4------------|/

Chorus:(1:56-2:36)

e|-x----x----x----------|\ 
B|-0----0----x----4/5555| \
G|-0----9----0----0-0000|  \____ Do This Eight Times.
D|-0----0----0----0-0000|  /
A|-8----0----0----0-0000| /
E|-0----7----4----0-0000|/

End on

e|0----|
B|0----|
G|0----|
D|0----|
A|-----|
E|-----|





--------------------------- Torre's Guitar ---------------------------

Same Tuning

Intro/Verse (0:00-0:16)

e|----------------------------------|\  
B|----------------------------------| \
G|----12/10---10/9----9/7----7/5----|  \____Play This Three Times 
D|0-0-------0-------0------0--------|  /
A|----------------------------------| / 
E|----------------------------------|/


Chorus (0:17-0:33)(Strumming Pattern is easy to figure out)

e|0----x----x----x----|\ 
B|0----7----4----9----| \
G|0----0----0----0----|  \____Play This Four Times
D|0----0----0----0----|  /
A|3----0----0----8----| / 
E|x----7----4----x----|/


Intro/Verse (0:34-0:56)


e|----------------------------------|\  
B|----------------------------------| \
G|----12/10---10/9----9/7----7/5----|  \____Play This Four Times 
D|0-0-------0-------0------0--------|  /
A|----------------------------------| / 
E|----------------------------------|/


e|-----------7----------------7-----------------7----------|\
B|---7-----0---0-----7------0---0------7------0---0--------| \
G|-0---0-----------0---0-------------0---0------------12~--|  \____One Time
D|---------------------------------------------------------|  /
A|-------7----------------7-----------------7--------------| /
E|7--------------7-----------------7-----------------------|/


Chorus (0:57-1:14)

e|0----x----x----x----|\ 
B|0----7----4----9----| \
G|0----0----0----0----|  \____Play This Four Times
D|0----0----0----0----|  /
A|3----0----0----8----| / 
E|x----7----4----x----|/


Bridge (1:15-1:52)

*Either Tim Or Torre Plays this*

e|0~--------x0----x0----|\
B|0~--------x0----x0----| \ 
G|0~--------x0----x0----|  \____Listen when to hit these. One Time.
D|0~--------x0----x0----|  /
A|----------------------| /
E|----------------------|/

e|--------------------|\
B|--------------------| \
G|9----4----5----14---|  \____ Do This Once
D|0----0----0----0----|  /
A|0----0----0----0----| / 
E|7----2----4----12---|/


e|----------------------------------|\  
B|----------------------------------| \
G|----12/10---10/9----9/7----7/5----|  \____Play This Twice
D|0-0-------0-------0------0--------|  /
A|----------------------------------| / 
E|----------------------------------|/


e|--------------------|\
B|--------------------| \
G|9----4----5----14---|  \____ Play This Three Times
D|0----0----0----0----|  /
A|0----0----0----0----| / 
E|7----2----4----12---|/


*On The Fourth Time Play This*

e|--------------------------------|
B|--------------------------------| 
G|9----4----5-5-5-5-5----14-14-14-|
D|0----0----0-0-0-0-0----0--0--0--|  
A|0----0----0-0-0-0-0----0--0--0--| 
E|7----2----4-4-4-4-4----12-12-12-|
              . . . . 

Chorus: (1:56-2:36)

e|0----x----x----x----|\ 
B|0----7----4----9----| \
G|0----0----0----0----|  \____Play This Eight Times
D|0----0----0----0----|  /
A|3----0----0----8----| / 
E|x----7----4----x----|/

End on

e|0----|
B|0----|
G|0----|
D|0----|
A|-----|
E|-----|

Legend:

[/]= Slide
[~]= Hold It
[(n)]= Ghost Note
[x]= Mute
[.]= Palm Mute
Tap to rate this tab
 
# A B C D E F G H I J K L M N O P Q R S T U V W X Y Z