Song name
# A B C D E F G H I J K L M N O P Q R S T U V W X Y Z

Transmetal - Decorado Con Clavos tab

Help us improve GuitareTab! Take a short survey!
                            
                     Decorado con Clavos
                         Transmetal 
                   Any Questions On It Message me 
                     To : milton-17@live.com
Intro
|--------------------------------------------------------------|
|-----------7--------8~-------------7---------7----------------|
|---9---------7--------------9--------7---------7--------------|
|-----9------------------------9--------7----------------------|
|-7-----7--------7---------7-----7-----------------------------|
|-------------------------------------------10-----------------|X4


|--------------------------------------------------------------|
|-----------7--------8~-------------7---------7----------------|
|---9---------7--------------9--------7---------7--------------|
|-----9------------------------9--------7----------------------|
|-7-----7--------7---------7-----7-----------------------------|
|-------------------------------------------10-----------------|X6

|----------------------------------------------------------------|
|----------------------------------------------------------------|
|-------------------------------------Play only in Fourth Time---|
|--9--11--12----9--11---14--------------------(9)----------------|
|--7---9--10----7---9---12-15-14-12-15-14-12--(7)----------------|
|----------------------------------------------------------------|X4

|--------------------------------------------------------------|
|-----------7--------8~-------------7---------7----------------|
|---9---------7--------------9--------7---------7--------------|
|-----9------------------------9--------7----------------------|
|-7-----7--------7---------7-----7-----------------------------|
|------------------------------------------10------------------|X6

|--------------------------------------------------------------|
|--------------------------------------------------------------|
|--------------------------------------------------------------|
|--9--11--12~~~----9--11---14~~~-------------------------------|
|--7---9--10~~~----7---9---12~~~-------------------------------|
|--------------------------------------------------------------|x4



|-----------------------------------------------------------------------|
|-----------------------------------------------------------------------|
|-----------------------------------------------------------------------|
|--9------11------------------------------9------11---------------------|
|--7-------9-----------10--10----10-10----7-------9---12--11-12--11--12-|
|-----0-0-----0-0-------8---8-----8--8-------0-0------10---9-10---9--10-|
Play 4 Times



Sorry But There's No Solo or rhythm for the solo


after the solo 
|--------------------------------------------------------------|
|-----------7--------8~-------------7---------7----------------|
|---9---------7--------------9--------7---------7--------------|
|-----9------------------------9--------7----------------------|
|-7-----7--------7---------7-----7-----------------------------|
|-------------------------------------------10-----------------|X6

|-----------------Play only Three Times--------------------------|
|-------------------------||-------------------------------------|
|-------------------------\/----------Play only in Fourth Time---|
|--9--11--12----9--11---(14)--------------------(9)--------------|
|--7---9--10----7---9---(12-15-14-12-15-14-12)--(7)--------------|
|----------------------------------------------------------------|X4

|--------------------------------------------------------------|
|-----------7--------8~-------------7---------7----------------|
|---9---------7--------------9--------7---------7--------------|
|-----9------------------------9--------7----------------------|
|-7-----7--------7---------7-----7-----------------------------|
|-------------------------------------------10-----------------|X4
Related for Decorado Con Clavos tab