Song name
# A B C D E F G H I J K L M N O P Q R S T U V W X Y Z

Transmetal - Letanias De Satan tab

Letanias de Satan 
Recorded by Transmetal
Tristeza de Lucifer

Arranged by Edgar Corona
Transcripcion por Edgar Corona.
Los Angeles, CA
e-mail..www.edcarnage@hotmail.com
si necesitan una tab de estos monos...

Gtr I tuning (D A D G B E) 


   Riff A                                             4x
||--------------------------------------------------------||
||o------------------------------------------------------o||
||--------------------------------------------------------||
||---3----------------------------------------------------||
||o--3-----4-5-4----5-7--8---5-8--7trill8--------4-------o||
||---1----------------------------------------------------||
                                          

Riff B
            PM------------------|         ~
||-------------------------------------------------|
||o------------------------------------------------|
||----------------------------------------5--------|
||--5s7-----------------------------5s=7--3--------|
||o-3s5-----------------------------3s=5-----------|
||------0---0---0---0---0---0---0------------------|


          PM-------------------|        ~
                                            
|----------------------------|----------------||
|----------------------------|---------------o||
|----------------------------|----------------||
|-5s7------------------------|----5s7---3-----||
|-3s5------------------------|----3s5---1----o||
|-----0---0---0---0---0---0--|-0--------------||


Riff B2 
            PM------------------|         ~
||-------------------------------------------------|
||o------------------------------------------------|
||----------------------------------------5--------|
||--5s7-----------------------------5s=7--3--------|
||o-3s5-----------------------------3s=5-----------|
||------0---0---0---0---0---0---0------------------|
      
     PM------------------|     
||--------------------------------
||o-------------------------------
||--------------------------------
||--5s7---------------------------
||o-3s5---------------------------
||------0---0---0---0---0---0---0-

--------------------------------|-------|
--------------------------------|-------|
--------------------------------|-------|
-5------------------------------|-------|
-3-0-4-5-7--8----5--8--7tr8-----|--4----|
--------------------------------|-------|


Riff C
    ~~~~~~~~~~
                3x
||---------------||----|
||o-------------o||----|
||---------------||----|
||--2---7---5----||----|
||o-2---7---5---o||----|
||--0---5---3----||----|


        ~         ~           ~           ~
    Riff D                                 3x
||--------------------------------------------||----|
||o------------------------------------------o||----|
||--------------------------------------------||----|
||--------------------------------------------||----|
||o------------------------------------------o||----|
||--0-2-3---2-3-5-7---7-/12-10-7---7-5-3-2-0--||----|

  Bridge                                                                      2x
||------------------------------------------------------------------------------||
||o----------------------------------------------------------------------------o||
||---------------------5-5-7-7-9-9-9-9--14-14-12-12-9-9-9-9---------------------||
||--2-2-5-5-7-7-9-9----5-5-7-7-9-9-9-9--14-14-12-12-9-9-9-9--10-10-9-9-2-2-2-2--||
||o-2-2-5-5-7-7-9-9----3-3-5-5-7-7-7-7--12-12-10-10-7-7-7-7--10-10-9-9-2-2-2-2-o||
||--0-0-3-3-5-5-7-7-------------------------------------------8--8-7-7-0-0-0-0--||

   Riff E                                                              4x
||------------------------------------------------------------------------||
||o----------------------------------------------------------------------o||
||------------------------------------------------------------------------||
||--2-------------------------------2---4----------------------4--9--7--2-||
||o-2-------------------------------2---4----------------------4--9--7--2o||
||--0--0--0--0---0--0--0---0--0--0--0---2--2-2-2--2-2-2--2-2-2-2--7--5--0-||

    Interlude                  4x
||-------------------------------||----|
||o-----------------------------o||----|
||-------------------------------||----|
||----7-11-------7-12-10---------||----|
||o-9------9-------------10--9--o||----|
||-------------------------------||----|

tr=trill

Progression de la Rola.....
Riff A 
Riff B
Riff B2
Riff B w/ B2   4x  con los primeros versos. 
Riff C
Riff B2            Ohh satan entrega......
Riff C       
Riff B2            Ohh satan entrega......

Riff B w/ B2   4x  con los siguientes versos..hasta CABALLOS......

Riff D
Bridge
Riff E
Interlude 
Riff E   w/  Solo
Riff D
Riff B
Riff B2
Riff B w/ B2   4x  tu que podras consolar........
Riff C
Riff B2
Riff C
Riff B2
Riff C
Riff B2
Riff C
Riff B2             hey ya padre!!!!!!!!!!!!!!!!!lo ultimo...

Los solos se los improvisan ustedes porque meda gueva....
Tap to rate this tab
 
# A B C D E F G H I J K L M N O P Q R S T U V W X Y Z