Song name
# A B C D E F G H I J K L M N O P Q R S T U V W X Y Z

Transplants - Red Dawn tab

Intro

Not sure how many times the 10 is played but its sounds right.
e---------------------------------------------------------------------|
b---------------------------------------------------------------------|
g--10-10-10-10-10-10-10-10-10-10--8-8-8-8-8-8-8--7-7-7-7-7-7-7--------|
d---------------------------------------------------------------------|
a-------------------------------------------------------------999--88-|
e-------------------------------------------------------------777--66-|

Verse / chorus

not sure if this is right but it goes along with the verses.
e---------------------------------------------------|
b---------------------------------------------------|
g-x-x-9--x-x-9--x-x-9--x-x-9--x-x-9--x-x-9----------| Repeat this many times.
d-x-x-9--x-x-9--x-x-9--x-x-9--x-x-9--x-x-9----------|
a-x-x-7--x-x-7--x-x-7--x-x-7--x-x-7--x-x-9--999-88--|
e-------------------------------------------777-66--|


Solo
Do a vibrato with the 5.
e-----------------------------------------|
b----9------------------------------------|
g------8-7-6-5v---------------------------|
d-----------------------------------------|   Repeat this 4 times.
a-----------------------------------------|
e-----------------------------------------|
Tap to rate this tab
# A B C D E F G H I J K L M N O P Q R S T U V W X Y Z