Guitaretab - guitar tabs
Song name
# A B C D E F G H I J K L M N O P Q R S T U V W X Y Z

Transplants - Diamonds And Guns tab

Song: Diamonds and Guns
Artist: The Transplants
Album: The Transplants
Tabbed by: TheReverend724

Piano
E--------------------------------------------|
B--------------------------------------------|
G--------------------------------------------|
D------5---5-4-3--------5---5-4-3------------|
A--3------------6---3-----------------------|
E--------------------------------------------|
[ Tab from: http://www.guitaretab.com/t/transplants/32452.html ]
Intro / Chorus
E----------------------------------------------|
B----------------------------------------------|
G--5---5-5-----------3---5---5-5-----------3---|
D--5---5-5--5---5-5--3---5---5-5--5---5-5--3---|
A--3---3-3--5---5-5--1--3---3-3--5---5-5--1---|
E-----------3---3-3---------------3---3-3------|

Verse
E--------------------------------------|
B--------------------------------------|
G--5---5-5-----------5---5-5-----------|
D--5---5-5-----------5---5-5-----------|
A--3---3-3-----------3---3-3-----------|
E--------------------------------------|

Bridge
E--------------------------------------------|
B--------------------------------------------|
G---77777777-----------77777777--------------|
D---77777777-777777777-77777777-77777777-----|
A---55555555-777777777-55555555-77777777-----|
E------------555555555----------55555555-----|

Enjoy
Related for Diamonds And Guns tab