Song name
# A B C D E F G H I J K L M N O P Q R S T U V W X Y Z

Transplants - Down In Oakland tab

-------------------------------------------------------------------------------
			     DOWN IN OAKLAND - Transplants
-------------------------------------------------------------------------------
Tabbed by: Sean
Email: seanmccracken@msn.com

Tuning: EADGBe

Intro: 4x
e|---------------------------------------------------------------------------|
B|---------------------------------------------------------------------------|
G|---------------------------------------------------------------------------|
D|-1/2-222-2-----------------------------------------------------------------|
A|----------0~---------------------------------------------------------------|
E|---------------3-3-3-3-2---------------------------------------------------|



e|---------------------------------------------------------------------------|
B|---------------------------------------------------------------------------|
G|-------10h11-10-------10-10h11-10-----10h11--------------------------------|
D|-8/9------------9-----------------9----------------------------------------|
A|---------------------------------------------2-3-2-0-----------------------|
E|-----------------------------------------------------3-2-------------------|


4x
e|-7----5----3----2----------------------------------------------------------|
B|-8----5----3----4----------------------------------------------------------|
G|-9----4----4----4----------------------------------------------------------|
D|-9----7----5----4----------------------------------------------------------|
A|-7----7----5----2----------------------------------------------------------|
E|-7----5----3----2----------------------------------------------------------|


3x
e|-x----x----x----x----------------------------------------------------------|
B|-3----3----4----4----------------------------------------------------------|
G|-4----4----4----4----------------------------------------------------------|
D|-5----5----4----4----------------------------------------------------------|
A|-5----5----2----2----------------------------------------------------------|
E|-x----x----x----x----------------------------------------------------------|



e|---------------------------------------------------------------------------|
B|---------------------------------------------------------------------------|
G|---------------------------------------------------------------------------|
D|---------------------------------------------------------------------------|
A|-2-3-2-0-------------------------------------------------------------------|
E|---------3-2---------------------------------------------------------------|


4x
e|---------------------------------------------------------------------------|
B|---------------------------------------------------------------------------|
G|---------------------------------------------------------------------------|
D|-1/2-222-2-----------------------------------------------------------------|
A|----------0~---------------------------------------------------------------|
E|---------------3-3-3-3-2---------------------------------------------------|


3x
e|-x----x----x----x----------------------------------------------------------|
B|-3----3----4----4----------------------------------------------------------|
G|-4----4----4----4----------------------------------------------------------|
D|-5----5----4----4----------------------------------------------------------|
A|-5----5----2----2----------------------------------------------------------|
E|-x----x----x----x----------------------------------------------------------|



e|---------------------------------------------------------------------------|
B|---------------------------------------------------------------------------|
G|---------------------------------------------------------------------------|
D|---------------------------------------------------------------------------|
A|-2-3-2-0-------------------------------------------------------------------|
E|---------3-2---------------------------------------------------------------|



4x
e|-7----5----3----2----------------------------------------------------------|
B|-8----5----3----4----------------------------------------------------------|
G|-9----4----4----4----------------------------------------------------------|
D|-9----7----5----4----------------------------------------------------------|
A|-7----7----5----2----------------------------------------------------------|
E|-7----5----3----2----------------------------------------------------------|


3x
e|-x----x----x----x----------------------------------------------------------|
B|-3----3----4----4----------------------------------------------------------|
G|-4----4----4----4----------------------------------------------------------|
D|-5----5----4----4----------------------------------------------------------|
A|-5----5----2----2----------------------------------------------------------|
E|-x----x----x----x----------------------------------------------------------|



B|---------------------------------------------------------------------------|
G|---------------------------------------------------------------------------|
D|---------------------------------------------------------------------------|
A|-2-3-2-0--------2-3-2-0--------2-3-2-0-------------------------------------|
E|---------3-2------------3-2------------3-2^-0----2^-0----0000000000000000--|


8x
e|---------------------------------------------------------------------------|
B|---------------------------------------------------------------------------|
G|---------------------------------------------------------------------------|
D|-1/2-222-2-----------------------------------------------------------------|
A|----------0~---------------------------------------------------------------|
E|---------------3-3-3-3-2---------------------------------------------------|







| ^  bend
| /  slide up
| \  slide down
| h  hammer-on
| p  pull-off
| ~  vibrato
| +  harmonic
| x  Mute note
===============================================================================
Tap to rate this tab
# A B C D E F G H I J K L M N O P Q R S T U V W X Y Z