Song name
# A B C D E F G H I J K L M N O P Q R S T U V W X Y Z

Transplants - Weigh On My Mind tab

Help us improve GuitareTab! Take a short survey!
Tabbed By CorporalHicks

Song:  Weigh On My Mind
Album: Transplants
Band:  Transplants

Legend

H - Hammer On
P - Pull Off
X - Not Played		

NOTE: Everything is down strum, unless stated

(Guitar One)
e|-7--5--3-------7--5--3--------------------------------------------------|
B|-8--5--3-------8--5--3--------------------------------------------------|
G|-7--5--4-------7--5--4--------------------------------------------------|
D|------------------------------------------------------------------------|X
A|------------------------------------------------------------------------|X
E|------------------------------------------------------------------------|X

(Guitar Two)
e|------------------------------------------------------------------------|X
B|-------2-3-2---------2-3-2----------------------------------------------|
G|-------------5-------------5--------------------------------------------|
D|------------------------------------------------------------------------|
A|------------------------------------------------------------------------|
E|------------------------------------------------------------------------|X
          H P           H P
Related for Weigh On My Mind tab