Song name
# A B C D E F G H I J K L M N O P Q R S T U V W X Y Z

Transplants - Quick Death tab

-------------------------------------------------------------------------------
			     Quick Death- The Transplants
-------------------------------------------------------------------------------
Tabbed by: callum
Email:callum_thomson666@hotmail.com

Tuning:EADGBe

e|--------------------------------------------------|
B|--------------------------------------------------|
G|--------------------------------------------------|
D|---3/4-----6\5-----4\3-----3\2--------------------|
A|---3/4-----6\5-----4\3-----3\2--------------------|
E|---1/2-----4\3-----2\1-----1\0--------------------|  (play this 4 times)


e|--------------------------------------------------|
B|--------------------------------------------------|
G|--------------------------------------------------|
D|-4444444444444442----7----------------------------|
A|-4444444444444442----7----------------------------|
E|-2222222222222220----5----------------------------|  (play this 4 times) 


e|--------------------------------------------------|
B|--------------------------------------------------|
G|--------------------------------------------------|
D|--------------------------------------------------|
A|-0-0-0-0-6p50-4p30-2p1----------------------------|
E|--------------------------------------------------|   (play this 4 times)
PM * * * *    *    *  

In the background you can hear a guitar doing this when they say
"and i ask you my brothers and sisters"

e|--------------------------------------------------|
B|--------------------------------------------------|
G|--------------------------------------------------|
D|--14\2--------------------------------------------|
A|--14\2--------------------------------------------|
E|--12\0--------------------------------------------|    


e|-------------------------|------------------------|
B|-------------------------|------------------------|
G|-------------------------|------------------------|
D|-------------------------|------------------------|
A|-0-0-0-0-6p50-4p30-2p1---|-0-0-0-0-6p50-4p3-3-0---|
E|-------------------------|------------------------|   (play this 4 times)
PM * * * *    *    *         * * * *    *     

In the background you can hear a guitar doing this when they say
"and nows my brothers and sisters"

e|--------------------------------------------------|
B|--------------------------------------------------|
G|--------------------------------------------------|
D|--14\2--------------------------------------------|
A|--14\2--------------------------------------------|
E|--12\0--------------------------------------------|    

e|-------------------------|------------------------|
B|-------------------------|------------------------|
G|-------------------------|------------------------|
D|-------------------------|------------------------|
A|-0-0-0-0-6p50-4p30-2p1---|-0-0-0-0-6p50-4p3-3-0---|
E|-------------------------|------------------------|   (play this 4 times)
PM * * * *    *    *         * * * *    *     

In the background you can hear a guitar doing this when they say

e|--------------------------------------------------|
B|--------------------------------------------------|
G|--------------------------------------------------|
D|--14\2--------------------------------------------|
A|--14\2--------------------------------------------|
E|--12\0--------------------------------------------|  for 2 bars


e|--------------------------------------------------|
B|--------------------------------------------------|
G|--------------------------------------------------|
D|-444444444442----7--------------------------------|
A|-444444444442----7--------------------------------|
E|-222222222220----5--------------------------------|   do this 4 times


e|--------------------------------------------------|
B|--------------------------------------------------|
G|--------------------------------------------------|
D|--------------------------------------------------|
A|-0-0-0-0-6p50-4p30-2p1----------------------------|
E|--------------------------------------------------|   (play this 4 times)
PM * * * *    *    *     


after a lot of bars rest come in with the solo

e|--------------------------------------------------|
B|-12/17 17 17 17 17 17 17 17-----------------------|
G|--------------------------------------------------|   dont know how many
D|-----------------------------14\2-----------------|   17s there is!
A|-----------------------------14\2-----------------|
E|-----------------------------12\0-----------------|   


e|--------------------------------------------------|
B|--------------------------------------------------|
G|--------------------------------------------------|
D|-444444444442----7--------------------------------|
A|-444444444442----7--------------------------------|
E|-222222222220----5--------------------------------|   do this 4 times

e|-------------------------|------------------------|
B|-------------------------|------------------------|
G|-------------------------|------------------------|
D|-------------------------|------------------------|
A|-0-0-0-0-6p50-4p30-2p1---|-0-0-0-0-6p50-4p3-3-0---|
E|-------------------------|------------------------|  (play this 8 times)

in the background a guitar does this until the end

e|--------------------------------------------------|
B|--------------------------------------------------|
G|--------------------------------------------------|
D|--14\2--------------------------------------------|
A|--14\2--------------------------------------------|
E|--12\0--------------------------------------------|  

 any comment are welcome!
 please be nice with rating this is my first tab!
Tap to rate this tab
 
# A B C D E F G H I J K L M N O P Q R S T U V W X Y Z