Song name
# A B C D E F G H I J K L M N O P Q R S T U V W X Y Z

Transplants - One Seventeen tab

this song is pretty basic, as there are only 2 parts to it.

Riff A (Intro/Verse):

  A5            F5                 B#5
E|----------------------------------------------------------------------|
A|----------------------------------------------------------------------|
D|*--------------10--10-10--10-10--------------------------------------*|
G|*-7--7-7--7-7--10--10-10--10-10---10--10-10--10-10--10--10-10--10-10-*|
B|--7--7-7--7-7---8---8--8---8--8---10--10-10--10-10--10--10-10--10-10--|
E|--5--5-5--5-5------------------(0)-8---8--8---8--8---8---8--8---8--8--|

Riff B (Breakdown/Chorus):

E|-------------------------------|
A|-------------------------------|
D|*-------------10/9-9-9--9-9---*|
G|*-8--8-8--8-8--x/x-9-9--9-9---*|
B|--8--8-8--8-8--8/7-7-7--7-7----|
E|--6--6-6--6-6--------------(0)-|

there is an interlude with a synth part played over Riff A near the end, i have tabbed this part for guitar.

A|-10--10-10--10-10-10-11--10-13--10-10-13-|

i'm not sure what the exact order for this song is, just listen and you'll pick up on it.



Basketcase87.
Tap to rate this tab
# A B C D E F G H I J K L M N O P Q R S T U V W X Y Z