Guitaretab - guitar tabs
Song name
# A B C D E F G H I J K L M N O P Q R S T U V W X Y Z

Transplants - Gangsters And Thugs tab

Gangsters & Thugs - Transplants
Haunted Cities


Tuning: Standard (E B D G A E)

x - dead note 
(n) - ghost note
> - accentuated note 
h - hammer on
p - pull off
^- bend 
/ - slide  
~ - vibrato
. - palm mute

Guitar 1 - Intro
e|----------------------------------------------------------|
B|----------------------------------------------------------|
G|----------------------------------------------------------|
D|----------------------------------------------------------|
A|-5-5-5-5--------------------5-5-5-5-----------------------|
E|---------3-3-3-3/5-5\3-3-3-3--------3-3-3-3/5-5\3-3-3-3---|

Guitar 2 - Intro
e|------------------------------------------------------|
B|------------------------------------------------------|
G|-14h16-14------------------14h16-14-------------------|
D|----------16-16-14-12-12-----------16-16-14-12-12-----|
A|------------------------------------------------------|
E|------------------------------------------------------|

Guitar 2 -  Intro con't
e|-------------------------------------------------|
B|-------------------------------------------------|
G|-------------------------------------------------|
D|---------12--------------------------------------|
A|-----/14----14-14-12-12--------------------------|
E|------------------------14~--12-12-10-10-12-10---|

Guitar 1 - Verse
e|----------------------------------|
B|----------------------------------|
G|----------------------------------|
D|----------------------*-----------|
A|---5---5--5--5-5-7-7-5-5----------|
E|-7---7---7-7----------------------|

Guitar 2  Verse (Played when Guitar 1 gets to where the * is)
e|----------------------------------|
B|----------------------------------|
G|--------------7-------------------|
D|--------------7-------------------|
A|--------------5-------------------|
E|----------------------------------|
[ Tab from: http://www.guitaretab.com/t/transplants/59941.html ]
Guitar 1 - Chorus (When they sing 'Gangsters and thugs, criminal and hoods... before the main riff)
e|-------------------------------------------------|
B|-------------------------------------------------|
G|--7----5------------------7----5-----------------|
D|--7----5----7-------------7----5----7------------|
A|--5----3----7-------------5----3----7------------|
E|------------5-----------------------5------------|
                (LET RING)              (LET RING)

Guitar 2 - Chorus (Heard in the background behind the main riff, sounds like surf guitar)
e|----------------------------------------------------------|
B|----------------------------------------------------------|
G|----------------------------------------------------------|
D|----------------------------------------------------------|
A|-5-5-5-5--------------------5-5-5-5-----------------------|
E|---------3-3-3-3/5-5\3-3-3-3--------3-3-3-3/5-5\3-3-3-3---|


Guitar 3 - Chorus/Main Riff
e|------------------------------------------------------|
B|------------------------------------------------------|
G|-14h16-14------------------14h16-14-------------------|
D|----------16-16-14-12-12-----------16-16-14-12-12-----|
A|------------------------------------------------------|
E|------------------------------------------------------|

Guitar 2 -  Main Riff con't
e|-------------------------------------------------|
B|-------------------------------------------------|
G|-------------------------------------------------|
D|---------12--------------------------------------|
A|-----/14----14-14-12-12--------------------------|
E|------------------------14~--12-12-10-10-12-10---|

Guitar 1 - Interlude/Bass 'n' Drum Breakdown
e|----------------------------------|
B|----------------------------------|
G|----------------------------------|
D|----------*------------------------|
A|-2--4-5-4-2-----------------------|
E|----------------------------------|

Guitar 2 - Interlude/Bass 'n' Drum Breakdown (Played when Guitar 1 gets to where the * is)
e|----------------------------------|
B|----------------------------------|
G|---------------7------------------|
D|---------------7------------------|
A|---------------5------------------|
E|----------------------------------|


Order:
Gtr. 1 Intro x4
Gtr. 2 Intro x2

Gtr. 1 Verse x8
Gtr. 2 Verse x8

Gtr. 1 Chorus x4
Gtr. 2 Chorus x4

Gtr. 2 Chorus x4
Gtr. 3 Chorus/Main Riff x4

Gtr. 1 Verse x8
Gtr. 2 Verse x8

Gtr. 1 Chorus x4
Gtr. 2 Chorus x4

Gtr. 2 Chorus x4
Gtr. 3 Chorus/Main Riff x4

Gtr. 1 Breakdown x4
Gtr. 2 Breakdown x4

Gtr. 1 Verse x4
Gtr. 2 Verse x4

Gtr. 1 Chorus x4
Gtr. 2 Chorus x4

Gtr. 2 Chorus x4
Gtr. 3 Chorus/Main Riff x4
      -END-

Question, comments or improvements? crackcityrockers@gmail.com
Related for Gangsters And Thugs tab