Song name
# A B C D E F G H I J K L M N O P Q R S T U V W X Y Z

Transplants - What I Cant Describe tab

e--5-3-2-3-|
b--5-3-2-3-|
g--6-4-2-4-|
d--7-5-4-5-|
a--7-5-4-5-|
E--5-3-2-3-|

Solo

e-------------|--------------|
b-------------|--------------|
g--7-6-4-2-0--|--------------|
d-----------4-|2-0---2-0-----|
a-------------|----4-0---4-0-|
e-------------|--------------|

I didn't find the bridge before the solo and the rest of the solo.
Tap to rate this tab
 
# A B C D E F G H I J K L M N O P Q R S T U V W X Y Z