Song name
# A B C D E F G H I J K L M N O P Q R S T U V W X Y Z

Transplants - American Guns tab

American Guns - Transplants
Haunted Cities


Tuning: Standard (E B D G A E)

x - dead note 
(n) - ghost note
> - accentuated note 
r - release
h - hammer on
p - pull off
^- bend 
/ - slide  
~ - vibrato
. - palm mute

Intro - Rythme Guitar  
e|--------------------------------------------------------------|
B|--------------------------------------------------------------|
G|-3--333333------------3-333333------------3-333333------------|
D|-3--333333--3-333333--3-333333--3-333333--3-333333--3-333333--|
A|-1--111111--3-333333--1-111111--3-333333--1-111111--3-333333--|
E|------------1-111111------------1-111111------------1-111111--|

e|--------------------------|
B|--------------------------|
G|-5-555555--5-555555-------|
D|-5-555555--5-555555-------|
A|-3-333333--3-333333-------|
E|--------------------------|

e|--------------------------------------------------------------|
B|--------------------------------------------------------------|
G|-3--333333------------3-333333------------3-333333------------|
D|-3--333333--3-333333--3-333333--3-333333--3-333333--3-333333--|
A|-1--111111--3-333333--1-111111--3-333333--1-111111--3-333333--|
E|------------1-111111------------1-111111------------1-111111--|

e|--------------------------|
B|--------------------------|
G|-5-555555--5-555555-------|
D|-5-555555--5-555555-------|
A|-3-333333--3-333333-------|
E|--------------------------| X2

[GUITAR 2 PICKSLIDES]

Chorus - Rythme Guitar
e|----------------------------------|
B|----------------------------------|
G|------5----------3----------------|
D|-3----5-----3----3----------------|
A|-3----3-x8--3----1x8--------------|
E|-1-x8-------1-x8------------------| x4

Chorus - Lead Guitar 
e|-/5-5-5-5-5-5-5-5---5-3-3-3----1-3--|
B|------------------------------------|
G|------------------------------------|
D|------------------------------------|
A|------------------------------------|
E|------------------------------------|

e|-/5-5-5-5-5-5-5-5---6-5-3-3----1-3--|
B|------------------------------------|
G|------------------------------------|
D|------------------------------------|
A|------------------------------------|
E|------------------------------------|

e|-/5-5-5-5-5-5-5-5---5-3-3-3----3-------------------------1-3--|
B|----------------------------------6-----5/6--6---5/6--6-------|
G|--------------------------------------------------------------|
D|--------------------------------------------------------------|
A|--------------------------------------------------------------|
E|--------------------------------------------------------------|

e|-/5-5-5-5-5-5-5-5---5-3-3-3----1-3--|
B|------------------------------------|
G|------------------------------------|
D|------------------------------------|
A|------------------------------------|
E|------------------------------------|

e|-/5-5-5-5-5-5-5-5---6-5-3-3----1-3--|
B|------------------------------------|
G|------------------------------------|
D|------------------------------------|
A|------------------------------------|
E|------------------------------------|

e|-/5-5-5-5-5-5-5-5---6-5-3-3----1-3--|
B|------------------------------------|
G|------------------------------------|
D|------------------------------------|
A|------------------------------------|
E|------------------------------------|

e|-/5-5-5-5-5-5-5-5---5-3-3-3----3--------------------------------|
B|----------------------------------6-----5/6--6---5/6--6--5/6--6-|
G|----------------------------------------------------------------|
D|----------------------------------------------------------------|
A|----------------------------------------------------------------|
E|----------------------------------------------------------------|

VERSE - Guitar 1
e|----------------------------------|
B|----------------------------------|
G|-3-3333333--1010101010------------|
D|-3-3333333--1010101010------------|
A|-1-1111111---8-8888888------------|
E|----------------------------------|x2

e|----------------------------------|
B|----------------------------------|
G|-5-5555555-55555555---------------|
D|-5-5555555-55555555---------------|
A|-3-3333333-33333333---------------|
E|----------------------------------|

e|----------------------------------|
B|----------------------------------|
G|-3-3333333--1010101010------------|
D|-3-3333333--1010101010------------|
A|-1-1111111---8-8888888------------|
E|----------------------------------|x2

e|----------------------------------|
B|----------------------------------|
G|-5-5555555-55555555---------------|
D|-5-5555555-55555555---------------|
A|-3-3333333-33333333---------------|
E|----------------------------------|


Verse - Guitar 2 (Don't play until Gtr. 1 is done playing C for the first time)
e|---6------6------(1)-(1)-----(1)--|
B|---6------6-----------------------|
G|---7------7-----------------------|
D|-8------8------3------------------|
A|----------------------------------|
E|----------------------------------|x2

e|----(8)---------(8)---------------|
B|----------------------------------|
G|----------------------------------|
D|-3--------------------------------|
A|----------------------------------|
E|------------------------PICKSLIDE-|

Bridge - Guitar 1 (Play C throughout the whole thing)
e|----------------------------------|
B|----------------------------------|
G|-555555555555555555555555555555---|
D|-555555555555555555555555555555---|
A|-333333333333333333333333333333---|
E|----------------------------------|

Bridge - Guitar 2
e|---------------------------------------------------------------------|
B|-5-5-5-5-5-5-5-5-5-3-1-1----1-3---/5-5-5-5-5-5-5-5-5-6-8-8------8----|
G|---------------------------------------------------------------------|
D|---------------------------------------------------------------------|
A|---------------------------------------------------------------------|
E|---------------------------------------------------------------------|

e|--------------------------------------------------------------------------|
B|-8-10-10-10-10-10-10-10-11-10-8-8--8--10^---r8-10^--10^-(10)10-10^-10-10r-|
G|--------------------------------------------------------------------------|
D|--------------------------------------------------------------------------|
A|--------------------------------------------------------------------------|
E|--------------------------------------------------------------------------|

Outro - Guitar 1
e|------------------------------------------------------------------|
B|------------------------------------------------------------------|
G|-----------------5-5-5-5-5-5-5-5-----------------3-3-3-3-3-3-3-3--|
D|-3-3-3-3-3-3-3-3-5-5-5-5-5-5-5-5-3-3-3-3-3-3-3-3-3-3-3-3-3-3-3-3--|
A|-3-3-3-3-3-3-3-3-3-3-3-3-3-3-3-3-3-3-3-3-3-3-3-3-1-1-1-1-1-1-1-1--|
E|-1-1-1-1-1-1-1-1-----------------1-1-1-1-1-1-1-1------------------|

Outro - Guitar 2
e|-----------------------------------------------------------------|
B|-8/6-6-6-6-6-6-6-6-6-6-6-8-8-8-8-6-6-6-6-6-6-6-6-6-5-5-6---6-6-6-|
G|-----------------------------------------------------------------|
D|-----------------------------------------------------------------|
A|-----------------------------------------------------------------|
E|-----------------------------------------------------------------|

e|-----------------------------------------------------1-3-|
B|-6--6-6-6-6-6-6-6-6/8-8-8----8-8-8-8-6-8-6--8-6--8-6-----|
G|---------------------------------------------------------|
D|---------------------------------------------------------|
A|---------------------------------------------------------|
E|---------------------------------------------------------|

e|-/5-5-5-5-5-5-5-5---5-3-3-3----1-3--|
B|------------------------------------|
G|------------------------------------|
D|------------------------------------|
A|------------------------------------|
E|------------------------------------|

e|-/5-5-5-5-5-5-5-5---6-5-3-3----1-3--|
B|------------------------------------|
G|------------------------------------|
D|------------------------------------|
A|------------------------------------|
E|------------------------------------|

e|-/5-5-5-5-5-5-5-5---5-3-3-3----3-------------------------1-3--|
B|----------------------------------6-----5/6--6---5/6--6-------|
G|--------------------------------------------------------------|
D|--------------------------------------------------------------|
A|--------------------------------------------------------------|
E|--------------------------------------------------------------|


End On Gtr.1
e|----|
B|----|
G|----|
D|-3--|
A|-3--|
E|-1--|

End On gtr.2
e|----|
B|-6--|
G|----|
D|----|
A|----|
E|----|



-END-

Question, comments or improvements? crackcityrockers@gmail.com













Tap to rate this tab
# A B C D E F G H I J K L M N O P Q R S T U V W X Y Z