Song name
# A B C D E F G H I J K L M N O P Q R S T U V W X Y Z

Transplants - Apocalypse Now tab

Apocalypse Now - Transplants
Haunted Cities


Tuning: Standard (E B D G A E)

x - dead note 
(n) - ghost note
> - accentuated note 
h - hammer on
p - pull off
^- bend 
/ - slide  
~ - vibrato
. - palm mute

Intro [Eminor]       [A]       [A#]
e|-----0--------------0---------1----------|
B|-----0--------------2---------3----------|
G|-----0--------------2---------3----------|
D|-----2--------------2---------3----------|
A|-----2--------------0---------1----------|
E|-----0-----------------------------------|


Verse, Chorus
e|----------------------------------|
B|-[E5]-----------------------------|
G|-9-9-9-9-9-9-9-9-[A5]----[A#}-----|
D|-9-9-9-9-9-9-9-9-7-7-7-7-8-8-8-8--|
A|-7-7-7-7-7-7-7-7-7-7-7-7-8-8-8-8--|
E|-----------------5-5-5-5-6-6-6-6--|

Post Chorus
e|--------------------------------------|
B|--------------------------------------|
G|----------9-9--------------------9-9--|
D|-9-9-9-9--9-9--9-9-9-9-9-9--9-9--9-9--|
A|-9-9-9-9--7-7--9-9-9-9-9-9--9-9--7-7--|
E|-7-7-7-7-------7-7-7-7-7-7--7-7-------|

      -END-

Question, comments or improvements? crackcityrockers@gmail.com


     

Tap to rate this tab
# A B C D E F G H I J K L M N O P Q R S T U V W X Y Z