Song name
# A B C D E F G H I J K L M N O P Q R S T U V W X Y Z

Transplants - 1234567 tab

1,2,3,4,5,6,7 - Transplants
Haunted Cities (Bonus Track)


Tuning: Standard (E B D G A E)

x - dead note 
(n) - ghost note
> - accentuated note 
h - hammer on
p - pull off
^- bend 
/ - slide  
~ - vibrato
. - palm mute

Rythme Guitar - Riff
e|------------------------------------------------|
B|------------------------------------------------|
G|-8-8-8-8----8-8-8-8----8-8-8-8----8-8-8-8-------|
D|-8-8-8-8----8-8-8-8----8-8-8-8----8-8-8-8--8-8--|
A|-6-6-6-6----6-6-6-6----6-6-6-6----6-6-6-6--8-8--|
E|-------------------------------------------6-6--|

Rythme Guitar - Riff con't
e|--------------------------------------------|
B|--------------------------------------------|
G|--------------------------------------------|
D|-6-6-6-6----6-6-6-6----6-6-6-6----6-6-6-6---|
A|-6-6-6-6----6-6-6-6----6-6-6-6----6-6-6-6---|
E|-4-4-4-4----4-4-4-4----4-4-4-4----4-4-4-4---|

Lead Guitar - Riff
e|---------------------------------------------|
B|----------------------------------8----------|
G|-----8-8-8----8-8-8-----8-8-8--10---10-8-----|
D|-/10-------/10------/10------------------10--|
A|---------------------------------------------|
E|---------------------------------------------|

Lead Guitar - Riff con't
e|---------------------------------------------------|
B|----------------------------------------8----------|
G|-/10-8-8-8--/10-8-8-8--/10-8-8-8-----10---10-8-----|
D|-----------------------------------------------10--|
A|---------------------------------------------------|
E|---------------------------------------------------|


      -END-

Question, comments or improvements? crackcityrockers@gmail.com
Tap to rate this tab
# A B C D E F G H I J K L M N O P Q R S T U V W X Y Z