Song name
# A B C D E F G H I J K L M N O P Q R S T U V W X Y Z

Transplants - Killafornia tab

Killafornia - Transplants ft. B Real
Haunted Cities


Tuning: Standard (E B D G A E)

x - dead note 
(n) - ghost note
> - accentuated note 
h - hammer on
p - pull off
^- bend 
/ - slide  
~ - vibrato
. - palm mute


Verse, Chorus - Rythme Guitar (Ska)
e|-1-x-1-x-4-x-4-x--|
B|-1-x-1-x-4-x-4-x--|
G|-1-x-1-x-5-x-5-x--|
D|-3-x-3-x-6-x-6-x--|
A|-3-x-3-x-6-x-6-x--|
E|-1-x-1-x-4-x-4-x--|

Chorus - Lead Guitar
e|----------------------------------|
B|----------------------------------|
G|----------------------------------|
D|----------------------------------|
A|---------3------------------------|
E|-1-1-1-1---1-3-4-4-4-4-3~---------|


BASS
G|----------------------------------|
D|----------------------------------|
A|---------3------------------------|
E|-1-1-1-1---1-3-4-4-4-4-3----------|
(I think thats it for the bass, email if its not and I'll try and figure it out)

-END-

Question, comments or improvements? crackcityrockers@gmail.com


                          

Tap to rate this tab
# A B C D E F G H I J K L M N O P Q R S T U V W X Y Z