Song name
# A B C D E F G H I J K L M N O P Q R S T U V W X Y Z

Trap Them - Day Nineteen Fucking Viva tab

Trap Them - Day Nineteen: Fucking Viva

Tuning is Drop C -CGCFAD

Main riff 8x
---------------------------------------|
---------------------------------------|
---------------------------------------|
---------------------------------------|
-----------------------------5-5-5-4---|
--4---1-3-0-0---6-7-6-3-0-0------------|

------------------------------------|
------------------------------------|
------------------------------------|
------------------------------------|
--------------------------2-1---2---|
--4---1-3-0-0---6-7-6-3-5-----5-----|

Bridge 2x
------------------------------------|
------------------------------------|
------------------------------------|
------------------------------------|
----2-1---2---------2-1---2-1-------|
--5-----5---------5-----5-----4-----|


Final riff
-------------------------------------|
-------------------------------------|
--------------2-2-2------------------|
--4--1-3-0-0--------3----------------|
--4--1-3-0-0----------0----5-5-5-4---|
--4--1-3-0-0------------0------------|

-------------------------------------|
-------------------------------------|
--------------2-2-2------------------|
--4--1-3-0-0--------3----------------|
--4--1-3-0-0-------------2-1---2-----|
--4--1-3-0-0-----------5-----5-------|
Tap to rate this tab
 
# A B C D E F G H I J K L M N O P Q R S T U V W X Y Z