Trapeze - Medusa tab

 Medusa- Trapeze 
 
 Guitar I- Intro [Finger-picked] Clean Electric or Acoustic

|--------0-----------|--------------------|
|--------------------|--------------------|
|---2bu4---4br2p0-2v-|--------------------|Just these two figures for Guitar
|--------------------|---5------4---------|1, reapeated for while.
|--------------------|---7------7---------|
|--------------------|--------------------|
 Guitar II- Intro [Finger-picked] Acoustic

|---------0-----------|
|-------0----0--------|
|-----0--------0------|Play constantly during this part of the tune, use track for timing.
|---2------------2----|
|---------------------|
|---------------------|

 Riff 1- Overdriven Guitar
|-------------|---------|----------------------|
|-------------|---------|----------------------|
|-------------|---------|----------------------|Repeat loads!
|----------2v-|---------|----------------------|
|-------------|4s5-4-5v-|---4s5-4-5-4-5--------|
|---0-0-/3----|---------|---------------3b3.5v-|


 Riff 2- Overdriven Guitar
|----------------------------------------------|
|----------------------------------------------|
|----------------------------------------------|Play once with volume swells initially, 
|-----9-7-5-4-5-4------------------------------|use the track to gaige this.
|-----7-5-3-2-3-2-2-2-2-2-2-2-2-2-2-2-2-2-2----|
|---0--0----------0-0-0-0-0-0-0-0-0-0-0-0-0-3v-|
                  P.M.---------------------

 Riff 3- Overdriven Guitar
|-------------|---------------|
|-------------|---------------|
|-------------|---------------|Repeat quite alot!
|----------2v-|---------------|
|-------------|4s5-4-5--------|
|---0-0-/3----|--------3b3.5v-|

 Riff 4- Overdriven Guitar
|----------|------------|
|----------|------------|
|----------|------------|
|----------|-----2v-----|
|---7-5-2--|------------|
|---5-3-0--|--3p0-------|

Haven't figured out the solo quite yet, but it's in E Phrygian or just Minor Pentatonic
if you wanna jam over this classic tune.

2011 J O'Baoigheallain

http://www.myspace.com/trapezetheband
Tap to rate this tab
 
# A B C D E F G H I J K L M N O P Q R S T U V W X Y Z