Song name
# A B C D E F G H I J K L M N O P Q R S T U V W X Y Z

Traphic Jam - Leyge Raha tab

-------------------------------------------------------------------------------
                            LEYGE RAHA - Traphic Jam
-------------------------------------------------------------------------------

From the album 'Dhirithibbas'
Tabbed by: Ahmed Husen
Email: ahumad.husen@gmail.com

Tuning: Standard (low to high EADGBe)


Legend: p.m. = Palm Mute. Each '.' under the tab means you should mute that note.
          h  = 7h9 means you should hammer on from the 7 fret to 9th fret.

Hey everyone this is my first tab. Its all transcribed be ear. Spare me if
There is any mistake! Sounds good to me. Enjoy playing. Good luck!


Only the intro is played clean. All other parts are played distorted.

Intro: 

|---------------------------------------------------|
|---------------------------------------------------|
|---------9--------9--------10-------9--------9-----| X 2 
|------9-----9--------9--------9--------9--------9--|
|---7-----------7--------7--------7--------7--------|
|---------------------------------------------------|

|---------------------------------------------------|
|---------------------------------------------------| 
|---------7--------7--------8--------7--------7-----| X 2
|------7-----7--------7--------7--------7--------7--|
|---5-----------5--------5--------5--------5--------|
|---------------------------------------------------|

Repeat intro 3 times

 
Chorus (without vocals): 
|--------------------------------------------------------------|
|--------------------------------------------------------------|
|--9----10--9--7/9----10--12--9--7----9--7--5/7----10--12--10--| X 2
|--9----10--9--7/9----10--12--9--7----9--7--5/7----10--12--10--|
|--7----8---7--5/7----8---10--7--5----7--5--3/5----8---10--8---|
 I think in the song these chords are strummed. You can experiment on it.


Verse: Repeat verse twice
|--------------------------------------------------------------|
|-o------------------------------------------------------------|
|----9------------7/9------------7/9------------10----12----9--|
|----9------------7/9------------7/9------------10----12----9--|
|-o--7--0-0-0-0-0-5/7--0-0-0-0-0-5/7--0-0-0-0-0-8-----10----7--|
|--------------------------------------------------------------|
 p.m.   . . . . .      . . . . .      . . . . .

|--------------------------------------------------------------|
|------------------------------------------------------------o-|
|--7------------5/7------------5/7------------10---12----10----|
|--7------------5/7------------5/7------------10---12----10----|
|--5--0-0-0-0-0-3/5--0-0-0-0-0-3/5--0-0-0-0-0-8----10----8---o-|
|--------------------------------------------------------------|
 p.m.   . . . . .      . . . . .      . . . . .



Then comes the Chorus. Play the chorus twice.
|--------------------------------------------------------------|
|--------------------------------------------------------------|
|--9----10--9--7/9----10--12--9--7----9--7--5/7----10--12--10--| X 2
|--9----10--9--7/9----10--12--9--7----9--7--5/7----10--12--10--|
|--7----8---7--5/7----8---10--7--5----7--5--3/5----8---10--8---|
|--------------------------------------------------------------|


After the Chorus there is a small interlude. Here's how it goes. Or at least how I 
think it goes ;)
Play it twice!

|------------------------------------------------------------------------|
|------------------------------------------------------------------------|
|------------------------------------------------------------------------|
|-------9-----9-----10-----9-----7h9-----9-----9-----10-9-7-10-9-7-10-9--|
|---7-7---7-7---7-7----7-7---7-7-----7-7---7-7---7-7---------------------|
|------------------------------------------------------------------------|
p.m . .   . .   . .    . .   . .     . .   . .   . .

|------------------------------------------------------------------------|
|------------------------------------------------------------------------|
|------------------------------------------------------------------------|
|-------7-----7-----9------7-----3h5------7-----7-----10---10-9---9-7-9--|
|---5-5---5-5---5-5----5-5---5-5-----5-5---5-5---5-5---------------------|
|------------------------------------------------------------------------|
p.m . .   . .   . .    . .   . .     . .   . .   . .

Then comes the second verse. Play as the first one. After that is the solo.
I couldn't figure out the solo yet. Neynge vaane kameh ves. 

The rhythm for solo is the chorus.



So here is the structure for the song.

Intro      X 3
Chorus     X 2
Verse      X 2
Chorus     X 2
Interlude  X 2
Verse      X 2
Then comes the solo. Rhythm for solo is the chorus
Intro      X 2
Chorus     X 2
Interlude  X 2
Chorus     X 2

Thank you! Please leave a comment or mail me if you've got a correction.



************************************

| /   slide up
| \   slide down
| h   hammer-on
| p   pull-off
| ~   vibrato
| +   harmonic
| .   Palm mute note
| b   Bend
| pb  Pre-bend
| br  Bend release
| pbr Pre-bend release
| brb Bend release bend

************************************
Tap to rate this tab
# A B C D E F G H I J K L M N O P Q R S T U V W X Y Z