Song name
# A B C D E F G H I J K L M N O P Q R S T U V W X Y Z

Trapped Under Ice - Reality Unfolds tab

TRAPPED UNDER ICE - REALITY UNFOLDS

    e|-----------------------|
    B|-----------------------|
GTR G|-----------------------|
 1  D|-0-----0-----2-1-----1-|
    A|-0-0-0-0-0-0-2-1-0-0-1-|
    D|-0-0-0-0-0-0-2-1-0-0-1-|
         P M   P M     P M

    e|-----------------------|
    B|-----------------------|
GTR G|-----------------------|
 2  D|-0-----------2-1-----1-|
    A|-0-----------2-1-0-0-1-|
    D|-0-----------2-1-0-0-1-|
                       P M

    e|---------------------------|
    B|---------------------------|
GTR G|---------------------------|
1+2 D|-----------------2-1-----1-| x3
    A|-0-0-0-0-0-0-0-0-2-1-0-0-1-|
    D|-0-0-0-0-0-0-0-0-2-1-0-0-1-|
       P M P M P M P M     P M 

    e|---------------------------|
    B|---------------------------|
GTR G|---------------------------|
1+2 D|-----------------5-6-------|
    A|-0-0-0-0-0-0-0-0-3-4-0-0-1-|
    D|-0-0-0-0-0-0-0-0-----0-0-1-|
       P M P M P M P M     P M

    e|---------------------------|
    B|---------------------------|
GTR G|---------------------------|
1+2 D|-----------------2-1-----1-| x4
    A|-0-0-0-0-0-0-0-0-2-1-0-0-1-|
    D|-0-0-0-0-0-0-0-0-2-1-0-0-1-|
       P M P M P M P M     P M 

    e|-------------------------------| 
    B|-------------------------------|
GTR G|-------------------------------|
 1  D|-------------------------------|
    A|-0-0-1-0-1/3-0-1-0-3-0-0-4-0-3-|
    D|-0-0-1-0-1/3-0-1-0-3-0-0-4-0-3-|
       P M P M P M P M P M P M P MPM

    e|-------------------------------| 
    B|-------------------------------|
GTR G|-------------------------------|
1+2 D|-------------------------------| 1,2,3,4,6,7,8,9,
    A|-0-0-1-0-1/3-0-1-0-3-0-0-4-0-3-|
    D|-0-0-1-0-1/3-0-1-0-3-0-0-4-0-3-|
       P M P M P M P M P M P M P MPM

    e|-------------------------------|
    B|-------------------------------|
GTR G|-------------------------------|
1+2 D|---------7------------1--1/4-3-| 5,10
    A|-0-0-0-0-5----0-0-0-0-1--1/4-3-|
    D|-0-0-0-0-7----0-0-0-0-1--1/4-3-|
       P M PM       P M P M

    e|---------------------------------------|
    B|---------------------------------------|
GTR G|---------------------------------------|
 1  D|---------------2------------4----1-1-1-|
    A|-0-1-3-1-4-3-1-2----0-1-3-1-4----1-1-1-|
    D|-0-1-3-1-4-3-1-2----0-1-3-1-4----1-1-1-|
       P M P M P MPM      P M P M       

    e|----------------------------------------|
    B|----------------------------------------|
GTR G|----------------------------------------|
 2  D|-0--------------------------------1-1-1-|
    A|-0--------------------------------1-1-1-|
    D|-0--------------------------------1-1-1-|

    e|---------------------------------------|
    B|---------------------------------------|
GTR G|---------------------------------------|
1+2 D|---------------2------------4----1-1-1-| x2
    A|-0-1-3-1-4-3-1-2----0-1-3-1-4----1-1-1-|
    D|-0-1-3-1-4-3-1-2----0-1-3-1-4----1-1-1-|
       P M P M P MPM      P M P M       

    e|------------------------------|
    B|------------------------------|
GTR G|------------------------------|
1+2 D|-0-0----0-------0-0----3/6--6-| 1,2,4
    A|-0-0----0-0-0-0-0-0----3/6--6-|
    D|-0-0----0-0-0-0-0-0----3/6--6-|
                P MPM

    e|------------------------------|
    B|------------------------------|
GTR G|------------------------------|
 1  D|-0-0----0-------0-0----3/6--6-| 3
    A|-0-0----0-0-0-0-0-0----3/6--6-|
    D|-0-0----0-0-0-0-0-0----3/6--6-|
                P MPM

    e|-----------------------------|
    B|-----------------------------|
GTR G|----/7-7-7-7-7-7-7-5-8-8-8-8-|
 2  D|-----------------------------| 3
    A|----/5-5-5-5-5-5-5-3-6-6-6-6-|
    D|-----------------------------|

    e|-------|
    B|-------|
GTR G|-------|
1+2 D|-0h1-1-|
    A|-0h1-1-|
    D|-0h1-1-|

    e|---------|
    B|---------|
GTR G|---------|
 1  D|-3/4-1/3-|
    A|-3/4-1/3-|
    D|-3/4-1/3-|

    e|-------------------------------| 
    B|-------------------------------|
GTR G|-------------------------------|
1+2 D|-------------------------------| 1,2,3,4
    A|-0-0-1-0-1/3-0-1-0-3-0-0-4-0-3-|
    D|-0-0-1-0-1/3-0-1-0-3-0-0-4-0-3-|
       P M P M P M P M P M P M P MPM

    e|-------------------------------|
    B|-------------------------------|
GTR G|-------------------------------|
1+2 D|---------7------------1--1/4-3-| 5,
    A|-0-0-0-0-5----0-0-0-0-1--1/4-3-|
    D|-0-0-0-0-7----0-0-0-0-1--1/4-3-|
       P M PM       P M P M

    e|-----------------------------------22^(24)-|
    B|-------------------------------------------|
GTR G|-17^(19)--------19p17----------------------|
 1  D|----------------------17^(19)--------------|
    A|-------------------------------------------|
    D|-------------------------------------------|

    e|-------------------------------------------|
    B|-17p15-------------------------------------|
GTR G|-------17^(19)-----------------14^(16)-----|
 1  D|------------------12/14/15-----------------|
    A|-------------------------------------------|
    D|-------------------------------------------|

Guitar 2 is silent during solo.

    e|-----------------------|
    B|-----------------------|
GTR G|-----------------------|
 1  D|-0-----0-----2-1-----1-|
    A|-0-0-0-0-0-0-2-1-0-0-1-|
    D|-0-0-0-0-0-0-2-1-0-0-1-|
         P M   P M     P M

    e|-----------------------|
    B|-----------------------|
GTR G|-----------------------|
 2  D|----0------------------|
    A|-1--0------------------|
    D|-1--0------------------|
      PM

    e|-----------------------|
    B|-----------------------|
GTR G|-----------------------|
 1  D|-0-----0-----2-1-----1-|
    A|-0-0-0-0-0-0-2-1-0-0-1-|
    D|-0-0-0-0-0-0-2-1-0-0-1-|
         P M   P M     P M

    e|---------------------|
    B|---------------------|
GTR G|---------------------|
 2  D|-0----0----0----0----|
    A|-0----0----0----0----|
    D|-0----0----0----0----|

    e|-----------------------|
    B|-----------------------|
GTR G|-----------------------|
1+2 D|-0-----0-----2-1-----1-|
    A|-0-0-0-0-0-0-2-1-0-0-1-|
    D|-0-0-0-0-0-0-2-1-0-0-1-|
         P M   P M     P M

    e|---------------------------|
    B|---------------------------|
GTR G|---------------------------|
1+2 D|-----------------2-1-----1-| x3
    A|-0-0-0-0-0-0-0-0-2-1-0-0-1-|
    D|-0-0-0-0-0-0-0-0-2-1-0-0-1-|
       P M P M P M P M     P M 

    e|---------------------------|
    B|---------------------------|
GTR G|---------------------------|
1+2 D|-----------------5-6-------|
    A|-0-0-0-0-0-0-0-0-3-4-0-0-1-|
    D|-0-0-0-0-0-0-0-0-----0-0-1-|
       P M P M P M P M     P M

    e|---------------------------|
    B|---------------------------|
GTR G|---------------------------|
1+2 D|-----------------2-1-----1-| x4
    A|-0-0-0-0-0-0-0-0-2-1-0-0-1-|
    D|-0-0-0-0-0-0-0-0-2-1-0-0-1-|
       P M P M P M P M     P M 
Tap to rate this tab
# A B C D E F G H I J K L M N O P Q R S T U V W X Y Z