Song name
# A B C D E F G H I J K L M N O P Q R S T U V W X Y Z

Trapped Under Ice - Soul Vice tab

TRAPPED UNDER ICE - SOUL VICE

    e|---------------------------------------|
    b|---------------------------------------|
GTR G|-----------------------------4----3----|
1+2 D|-0--------4----3----0--------2----1----|
    A|-0--------4----3----0--------2----1----|
    D|-0--------4----3----0------------------|

    e|------------------------------------------------|
    b|------------------------------------------------|
GTR G|--------------------------------------4----3----|
1+2 D|--------------4---3----0--------------2----1----|
    A|--------------4---3----0--0-0-0-0-0-0-2----1----|
    D|-000000000000-4---3----0--0-0-0-0-0-0-----------|
       PMPMPMPMPMPM             P M P M P M

    e|------------------------------------------------------------|
    b|------------------------------------------------------------|
GTR G|---------------------------3-4------4-3------3-4------4-3---|
1+2 D|-0-0-0-0-0-0-3/4-4-4-4\3-3-1-2------2-1------1-2------2-1-3-|
    A|-0-0-0-0-0-0-3/4-4-4-4\3-3-1-2-0000-2-1-0000-1-2-0000-2-1-3-|
    D|-0-0-0-0-0-0-3/4-4-4-4\3-3-----0000-----0000-----0000-----3-|
                                     PMPM     PMPM     PMPM

    e|---------------------------------------------------------|
    b|---------------------------------------------------------|
GTR G|---------------------------3-4-----4-3-----3-4-----4-3---|
1+2 D|-0-0-0-0-0-0-3/4-4-4-4\3-3-1-2-----2-1-----1-2-----2-1-3-|
    A|-0-0-0-0-0-0-3/4-4-4-4\3-3-1-2-0-0-2-1-0-0-1-2-0-0-2-1-3-|
    D|-0-0-0-0-0-0-3/4-4-4-4\3-3-----0-0-----0-0-----0-0-----3-|
                                     P M     P M     P M

    e|---------------------------------------------------------------|
    b|---------------------------------------------------------------|
GTR G|---------------------------------3-4-4-4-4-3-3-3-3-4-4-4-4-3---|
1+2 D|---------------------------------1-2-2-2-2-1-1-1-1-2-2-2-2-1-3-|
    A|-0-0-0-0-0-0-0-0-3/4-4-4-4-3-3-3-1-2-2-2-2-1-1-1-1-2-2-2-2-1-3-|
    D|-0-0-0-0-0-0-0-0-3/4-4-4-4-3-3-3-----------------------------3-|
       P M P M P M P M P M P M P M P M P M P M P M P M P M P M  

    e|------------------------------------------------------------|
    b|------------------------------------------------------------|
GTR G|---------------------------3-4------4-3------3-4------4-3---|
 1  D|-0-0-0-0-0-0-3/4-4-4-4\3-3-1-2------2-1------1-2------2-1-3-|
    A|-0-0-0-0-0-0-3/4-4-4-4\3-3-1-2-0000-2-1-0000-1-2-0000-2-1-3-|
    D|-0-0-0-0-0-0-3/4-4-4-4\3-3-----0000-----0000-----0000-----3-|
                                     PMPM     PMPM     PMPM

    e|------------------------------------------------------------------|
    b|------------------------------------------------------------------|
GTR G|-7-8-7-4-7-8-7-4-1111111111-1010-4-3------3-4------4-3------4-3---|
 2  D|---------------------------------2-1------1-2------2-1------2-1-3-|
    A|-5-6-5-2-5-6-5-2-9-9-9-9-9--8-8--2-1-0000-1-2-0000-2-1-0000-2-1-3-|
    D|-------------------------------------0000-----0000-----0000-----3-|
                                           PMPM     PMPM     PMPM
Tap to rate this tab
 
# A B C D E F G H I J K L M N O P Q R S T U V W X Y Z