Guitaretab - guitar tabs
Song name
# A B C D E F G H I J K L M N O P Q R S T U V W X Y Z

Trapt - Wasteland tab

-------------------------------------------------------------------------------
			   Wasteland - Trapt
-------------------------------------------------------------------------------
Tabbed by: DizzyThermal
Email: DizzyThermal@gmail.com

Author's Note: Hey guys, I did my best with this tab,  There are a lot of
               hard-to-hear riffs intergrated with two guitars that might
               be a bit off, or missing from the tab!  Please e-mail me
               any corrections!  If valid, this will be reposted!  THANKS!
               E-mail:  DizzyThermal@gmail.com

Tuning: Drop-D (DADGBe)

Introduction [0:00-0:15]
e|-----------------------------------------------------------|
B|-----------------------------------------------------------|
G|-4-4-7-7-7-0-------------------4-4-7-7-7-0-----------------|
D|-----------0-5-5-5-5-5-5-5-5-------------0-9-9-9-9-9-9-9-9-| x3
A|-2-2-5-5-5-0-5-5-5-5-5-5-5-5---2-2-5-5-5-0-7-7-7-7-7-7-7-7-|
D|-------------5-5-5-5-5-5-5-5---------------7-7-7-7-7-7-7-7-|

Pre-Verse [0:16-0:27]
e|---------------------------------------------|
B|---------------------------------------------|
G|---------------------------------------------|
D|---------------------------------------------| x2
A|-2-2-5-5-5-5-5--5-5-5-5--2-2-5-5-5-0---------|
D|-------------------------------------7-7-7-7-|
PM ............................................

Pre-Verse [0:27-0:33]
e|------------------------------------------------------------|
B|------------------------------------------------------------|
G|-4-4-7-7-7-0-------------------4-4-7-7-7-0------------------|
D|-----------0-5-5-5-5-5-5-5-5-------------0-9-9-9-9----------|
A|-2-2-5-5-5-0-5-5-5-5-5-5-5-5---2-2-5-5-5-0-7-7-7-7--9-7/5-7-|
D|-------------5-5-5-5-5-5-5-5---------------7-7-7-7----------|

Pre-Verse [0:33-0:38]
e|------------------------------------------------------------|
B|------------------------------------------------------------|
G|-4-4-7-7-7-0-------------------4-4-7-7-7-0------------------|
D|-----------0-5-5-5-5-5-5-5-5-------------0-9-9-9-9----------|
A|-2-2-5-5-5-0-5-5-5-5-5-5-5-5---2-2-5-5-5-0-7-7-7-7--9-7-5~~-|
D|-------------5-5-5-5-5-5-5-5---------------7-7-7-7----------|

Verse [0:39-0:44]
e|---------------------------------------------------|
B|---------------------------------------------------|
G|-77-77-77-77--99-99-99-99--44-44-44-44-------------|
D|-77-77-77-77--99-99-99-99--44-44-44-44--44-4--55-5-|
A|-55-55-55-55--77-77-77-77--22-22-22-22--44-4--55-5-|
D|----------------------------------------44-4--55-5-|
PM ..  .  .  .  ..  .  .  .  ..  .  .  .  ..    ..

Verse [0:44-0:48]
e|---------------------------------------------------|
B|---------------------------------------------------|
G|-77-77-77-77--99-99-99-99--44-44-44-44-------------|
D|-77-77-77-77--99-99-99-99--44-44-44-44--4444--5555-|
A|-55-55-55-55--77-77-77-77--22-22-22-22--4444--5555-|
D|----------------------------------------4444--5555-|
PM ..  .  .  .  ..  .  .  .  ..  .  .  .  ....  ....

Chorus [0:50-1:01]
e|----------------------------------|
B|----------------------------------|
G|----------------------------------|
D|-5-5-x-x-0-0-x-x-7-7-x-x--2-2-2/4-| x2
A|-5-5-x-x-0-0-x-x-7-7-x-x--2-2-2/4-|
D|-5-5-x-x-0-0-x-x-7-7-x-x--2-2-2/4-|

Chorus [1:01-1:06]
e|---------------------------|
B|---------------------------|
G|---------------------------|
D|-5----0----7----2----2/444-|
A|-5-x6-0-x6-7-x6-2-x4-2/444-|
D|-5----0----7----2----2/444-|

Chorus [1:06-1:12]
e|---------------------|
B|---------------------|
G|---------------------|
D|-5----0----7----8----|
A|-5-x6-0-x6-7-x6-8-x8-|
D|-5----0----7----8----|

Pre-Verse [1:12-1:17]
e|-----------------------------------------------------------|
B|-----------------------------------------------------------|
G|-4-4-7-7-7-0-------------------4-4-7-7-7-0-----------------|
D|-----------0-5-5-5-5-5-5-5-5-------------0-5-5-5-5-5-5-5-5-|
A|-2-2-5-5-5-0-5-5-5-5-5-5-5-5---2-2-5-5-5-0-5-5-5-5-5-5-5-5-|
D|-------------3-3-3-3-3-3-3-3---------------3-3-3-3-3-3-3-3-|

Pre-Verse [1:18-1:23]
e|---------------------------------------------|
B|---------------------------------------------|
G|---------------------------------------------|
D|---------------------------------------------|
A|-2-2-5-5-5-5-5--5-5-5-5--2-2-5-5-5-0---------|
D|-------------------------------------7-7-7-7-|
PM ............................................

Pre-Verse [1:23-1:28]
e|-------------------------------------------------|
B|-------------------------------------------------|
G|-------------------------------------------------|
D|-------------------------------------------------|
A|-2-2-5-5-5-5-5--5-5-5-5--2-2-5-5-5-0-------------|
D|-------------------------------------7-7-7-7-7-7-|
PM .........................................

Pre-Verse [1:29-1:34]
e|------------------------------------------------------------|
B|------------------------------------------------------------|
G|-4-4-7-7-7-0-------------------4-4-7-7-7-0------------------|
D|-----------0-5-5-5-5-5-5-5-5-------------0-9-9-9-9----------|
A|-2-2-5-5-5-0-5-5-5-5-5-5-5-5---2-2-5-5-5-0-7-7-7-7--9-7/5-7-|
D|-------------5-5-5-5-5-5-5-5---------------7-7-7-7----------|

Pre-Verse [1:35-1:40]
e|------------------------------------------------------------|
B|------------------------------------------------------------|
G|-4-4-7-7-7-0-------------------4-4-7-7-7-0------------------|
D|-----------0-5-5-5-5-5-5-5-5-------------0-9-9-9-9----------|
A|-2-2-5-5-5-0-5-5-5-5-5-5-5-5---2-2-5-5-5-0-7-7-7-7--9-7-5~~-|
D|-------------5-5-5-5-5-5-5-5---------------7-7-7-7----------|

Verse [1:40-1:46]
e|---------------------------------------------------|
B|---------------------------------------------------|
G|-77-77-77-77--99-99-99-99--44-44-44-44-------------|
D|-77-77-77-77--99-99-99-99--44-44-44-44--44-4--55-5-|
A|-55-55-55-55--77-77-77-77--22-22-22-22--44-4--55-5-|
D|----------------------------------------44-4--55-5-|
PM ..  .  .  .  ..  .  .  .  ..  .  .  .  ..    ..
[ Tab from: http://www.guitaretab.com/t/trapt/171102.html ]
Verse [1:46-1:51]
e|---------------------------------------------------|
B|---------------------------------------------------|
G|-77-77-77-77--99-99-99-99--44-44-44-44-------------|
D|-77-77-77-77--99-99-99-99--44-44-44-44--4444--5555-|
A|-55-55-55-55--77-77-77-77--22-22-22-22--4444--5555-|
D|----------------------------------------4444--5555-|
PM ..  .  .  .  ..  .  .  .  ..  .  .  .  ....  ....

Chorus [1:51-2:02]
e|----------------------------------|
B|----------------------------------|
G|----------------------------------|
D|-5-5-x-x-0-0-x-x-7-7-x-x--2-2-2/4-| x2
A|-5-5-x-x-0-0-x-x-7-7-x-x--2-2-2/4-|
D|-5-5-x-x-0-0-x-x-7-7-x-x--2-2-2/4-|

Chorus [2:02-2:07]
e|---------------------------|
B|---------------------------|
G|---------------------------|
D|-5----0----7----2----2/444-|
A|-5-x6-0-x6-7-x6-2-x4-2/444-|
D|-5----0----7----2----2/444-|

Chorus [2:07-2:13]
e|---------------------|
B|---------------------|
G|---------------------|
D|-5----0----7----8----|
A|-5-x6-0-x6-7-x6-8-x8-|
D|-5----0----7----8----|

Solo [2:13-2:19]
e|---------------------------|
B|---------------------15----|
G|-14~12~11~11~------12------|
D|-------------12~-12--------|
A|-----------------------12~~|
D|---------------------------|

Solo [2:19-2:23]
e|--------------|    e|---|
B|-----10-------|    B|---|
G|--11---11-----|    G|---|
D|-9--9----12-9-| x2 D|-0-|
A|--------------|    A|---|
D|--------------|    D|---|

Solo [2:25-2:29]
e|-10--------------|    e|----|
B|---12--12--------|    B|----|
G|-----11--11------|    G|----|
D|------------11-9-| x2 D|-12-|
A|-----------------|    A|----|
D|-----------------|    D|----|

Solo [2:30-2:35]
e|---------------------|
B|----------12---------|
G|-14~12~11~-----------|
D|-----------14--16~17~|
A|---------------------|
D|---------------------|

Verse [2:36-2:41]
e|---------------------------------------------------|
B|---------------------------------------------------|
G|-77-77-77-77--99-99-99-99--44-44-44-44-------------|
D|-77-77-77-77--99-99-99-99--44-44-44-44--44-4--55-5-|
A|-55-55-55-55--77-77-77-77--22-22-22-22--44-4--55-5-|
D|----------------------------------------44-4--55-5-|
PM ..  .  .  .  ..  .  .  .  ..  .  .  .  ..    ..

Verse [2:41-2:45]
e|---------------------------------------------------|
B|---------------------------------------------------|
G|-77-77-77-77--99-99-99-99--44-44-44-44-------------|
D|-77-77-77-77--99-99-99-99--44-44-44-44--4444--5555-|
A|-55-55-55-55--77-77-77-77--22-22-22-22--4444--5555-|
D|----------------------------------------4444--5555-|
PM ..  .  .  .  ..  .  .  .  ..  .  .  .  ....  ....

Chorus [2:45-2:53]
e|---------------------------|
B|---------------------------|
G|---------------------------|
D|-5----0----7----2----2/444-|
A|-5-x4-0-x4-7-x4-2-x2-2/444-|
D|-5----0----7----2----2/444-|

Chorus [2:53-2:58]
e|---------------------------|
B|---------------------------|
G|---------------------------|
D|-5----0----7----8----------|
A|-5-x4-0-x4-7-x4-8-x7-------|
D|-5----0----7----8----------|

Chorus [2:58-3:04]
e|---------------------------|
B|---------------------------|
G|---------------------------|
D|-5----0----7----2----2/444-|
A|-5-x6-0-x6-7-x6-2-x4-2/444-|
D|-5----0----7----2----2/444-|

Chorus [3:04-3:09]
e|---------------------|
B|---------------------|
G|---------------------|
D|-5----0----7----8----|
A|-5-x6-0-x6-7-x6-8-x8-|
D|-5----0----7----8----|

Extended-Chorus [3:09-3:15]
  Guitar 1:
  e|---------------------------|
  B|---------------------------|
  G|---------------------------|
  D|-5----0----7----2----2/444-|
  A|-5-x6-0-x6-7-x6-2-x4-2/444-|
  D|-5----0----7----2----2/444-|

  Guitar 2:
  e|-----------------------------------------|
  B|-----------------------------------------|
  G|-12-12-12-12-11-9-----12-12-12-12-11-9---|
  D|------------------12-------------------9-|
  A|-----------------------------------------|
  D|-----------------------------------------|

Extended-Chorus [3:15-3:20]
  Guitar 1:
  e|---------------------------|
  B|---------------------------|
  G|---------------------------|
  D|-5----0----7----2----2/444-|
  A|-5-x6-0-x6-7-x6-2-x4-2/444-|
  D|-5----0----7----2----2/444-|

  Guitar 2:
  e|-----------------------------------------|
  B|-----------------------------------------|
  G|-12-12-12-12-11-9-----12-12-12-12-11-9---|
  D|------------------12-------------------9-|
  A|-----------------------------------------|
  D|-----------------------------------------|

Extended-Chorus [3:20-3:25]
  Guitar 1:
  e|---------------------------|
  B|---------------------------|
  G|---------------------------|
  D|-5----0----7----2----2/444-|
  A|-5-x6-0-x6-7-x6-2-x4-2/444-|
  D|-5----0----7----2----2/444-|

  Guitar 2:
  e|-----------------------------------------|
  B|-----------------------------------------|
  G|-12-12-12-12-11-9-----12-12-12-12-11-9---|
  D|------------------12-------------------9-|
  A|-----------------------------------------|
  D|-----------------------------------------|

Extended-Chorus [3:25-3:31]
  Guitar 1:
  e|---------------------------|
  B|---------------------------|
  G|---------------------------|
  D|-5----0----7----2----2/444-|
  A|-5-x6-0-x6-7-x6-2-x4-2/444-|
  D|-5----0----7----2----2/444-|

  Guitar 2:
  e|-----------------------------------------|
  B|-----------------------------------------|
  G|-12-12-12-12-11-9-----12-12-12-12-11-9---|
  D|------------------12-------------------9-|
  A|-----------------------------------------|
  D|-----------------------------------------|

Outro [3:32-3:45]
e|-------------------------|
B|-------------------------|
G|-4-4-7-7-7-0---let-------|
D|-----------0-5----it-----|
A|-2-2-5-5-5-0-5------ring-|
D|-------------5-----------|

Legend:
===============================================================================
| x  Mute note
| .  Palm mute
| /  Slide up
| ~  Vibrato
===============================================================================
Related for Wasteland tab
Advertisement will be closed in 10 seconds