Song name
# A B C D E F G H I J K L M N O P Q R S T U V W X Y Z

Trapt - Whos Going Home With You Tonight tab

This the rhythm and lead part for this song cause nobody put it up 
yet... and I'm quite certain it's correct so play it and find out. 
If not, it's definitely very close. That I'm sure of. I think lead 
is played in cut time which makes it faster. Order of the parts is 
at the bottom of this page.
Starts after a 1 second drum intro.

Trapt is:
Vocals: Chris Taylor Brown
Guitar: Robb Torres
Bass: Peter Charell
Drums: Aaron "Monty" Montgomery

-rhythm-
Intro/Chorus
e:---------------------------------------------------------------:
B:---------------------------------------------------------------:
G:-44--88--66666666-4444888866666666-4444----66666666-44--88--6~-:
D:-44--88--66666666-4444888866666666-4444444466666666-44--88--6~-:
A:-22--66--44444444-2222666644444444-2222444444444444-22--66--4~-:
E:---------------------------------------2222--------------------:

Verse
e:--------------------------------:
B:--------------------------------:x2
G:-44--44--44--44--88--88--66--66-:
D:-44--44--44--44--88--88--66--66-:
A:-22--22--22--22--66--66--44--44-:
E:--------------------------------:

PreChorus
e:------------------------------------------------------------------:
B:------------------------------------------------------------------:
G:-------------------------------------------------------------6666-:
D:---44--44--44--44--66--66--66--66--44--44--44--44--------66666666-:
A:-2222222222222222444444444444444422222222222222224444444444444444-:
E:------------------------------------------------------------------:
P.M.                                                       End P.M.

Bridge
e:------------------------------------------------------------------:
B:------------------------------------------------------------------:
G:-4~--------------6~--------------4~--------------6~---------------:
D:-x---------------x---------------x---------------x----------------:
A:-2222222222222222444444444444444422222222222222224444444444444444-:
E:------------------------------------------------------------------:
P.M.

e:------------------------------------------------------------------:
B:------------------------------------------------------------------:
G:-4~--------------6~--------------4~--------------6~----------6666-:
D:-x---------------x---------------x---------------x-------66666666-:
A:-2222222222222222444444444444444422222222222222224444444444444444-:
E:------------------------------------------------------------------:
                                                           End P.M.



-lead-
Intro/Chorus
e:-2222222222222222111111111111111122222222222222221111111111111111-:
B:------------------------------------------------------------------:
G:------------------------------------------------------------------:
D:------------------------------------------------------------------:
A:------------------------------------------------------------------:
E:------------------------------------------------------------------:

e:-22222222666666664444444444444444--------22222222-1~-:
B:---------------------------------44444444------------:
G:-----------------------------------------------------:
D:-----------------------------------------------------:
A:-----------------------------------------------------:
E:-----------------------------------------------------:

Verse
e:-2222222222222222111111111111111122222222222222221111111111112222-:
B:---------------------------------------------------------xxxxxxxx-:
G:---------------------------------------------------------xxxxxxxx-:
D:---------------------------------------------------------33334444-:
A:------------------------------------------------------------------:
E:------------------------------------------------------------------:

PreChorus
e:------------------------------------------------------------------:
B:------------------------------------------------------------------:
G:-------------------------------------------------------------6666-:
D:---44--44--44--44--66--66--66--66--44--44--44--44--------66666666-:
A:-2222222222222222444444444444444422222222222222224444444444444444-:
E:------------------------------------------------------------------:
P.M.                                                       End P.M.

Bridge
e:------------------------------------------------------------------:
B:------------------------------------------------------------------:
G:-----4~--------------6~--------------4~--------------6~-----------:
D:-----x---------------x---------------x---------------x------------:
A:-2222222222222222444444444444444422222222222222224444444444444444-:
E:------------------------------------------------------------------:
P.M.

e:------------------------------------------------------------------:
B:------------------------------------------------------------------:
G:-----4~--------------6~---------------4~---------6~----------6666-:
D:-----x---------------x----------------x----------x-------66666666-:
A:-2222222222222222444444444444444422222222222222224444444444444444-:
E:------------------------------------------------------------------:
                                                           End P.M.

LastChorus
e:-1h2--1---2-1-------1h2--1-------------444444442222222211111111---------:
B:--------2-----2-4-2--------2----2-4-2~-------------------------44444444-:
G:------------------------------3-----------------------------------------:
D:------------------------------------------------------------------------:
A:------------------------------------------------------------------------:
E:------------------------------------------------------------------------:

e:------------------:
B:-2--2---4--4---2~-:
G:------------------:
D:------------------:
A:------------------:
E:------------------:

-rhythm-
Intro/Chorus
Verse
PreChorus
Intro/Chorus
Verse
PreChorus
Intro/Chorus x2
Bridge
Intro/Chorus x2

-lead-
Intro/Chorus
Verse
PreChorus
Intro/Chorus
Verse
PreChorus
Intro/Chorus x2
Bridge
Intro/Chorus
LastChorus

P.M.= palm mute
~= hold it
h= hammer on

BOOM! You got the leads now! Have fun!
Tap to rate this tab
 
# A B C D E F G H I J K L M N O P Q R S T U V W X Y Z