Song name
# A B C D E F G H I J K L M N O P Q R S T U V W X Y Z

Trapt - Sound Off tab

-------------------------------------------------------------------------------
			   Sound Off - Trapt
-------------------------------------------------------------------------------
Tabbed by: DizzyThermal
Email:     DizzyThermal@gmail.com

Author's Note: Hey guys, this song was a tough on to tab, but I
               did my best to make it sound just like the album
               version!  If you come across any pieces that you
               feel are incorrect or have easier ways of being
               played, PLEASE contact me at DizzyThermal@gmail.com
               and it will be fixed and you're name will be
               accredited!  Thanks guys, enjoy!

Tuning: Drop-C (CGCFAc)

Introduction [0:00-0:07]              [0:08-0:10]
c|--------------------------------|    c|------|
A|--------------------------------|    A|------|
F|--------------------------------|    F|------|
C|-99-0-9-10-9-0-9-12-9-0-9-10--9-| x3 C|-5--0-|
G|-99-0-9-10-9-0-9-12-9-0-9-10--9-|    G|-5--0-|
C|-99-0-9-10-9-0-9-12-9-0-9-10--9-|    C|-5--0-|

             REPEAT INTRODUCTION x2

Verse [0:21-0:41]
c|--------------------------------------------|
A|--------------------------------------------|
F|-11-11-------11-11-------9-9-------9-9------|
C|--------9-9---------9-9-------9-9-------9-9-|
G|--------------------------------------------|
C|--------------------------------------------|
PM ...........................................

c|------------------------------------------------|
A|------------------------------------------------|
F|-11-11-------11-11------------------------------|
C|--------9-9---------9-9--12-12--9-9--11-11--9-9-| x4
G|------------------------------------------------|
C|------------------------------------------------|
PM ...............................................

Chorus [0:41-0:49]                    [0:49-0:51]
c|--------------------------------|    c|------|
A|--------------------------------|    A|------|
F|--------------------------------|    F|------|
C|-99-0-9-10-9-0-9-12-9-0-9-10--9-| x3 C|-5--0-|
G|-99-0-9-10-9-0-9-12-9-0-9-10--9-|    G|-5--0-|
C|-99-0-9-10-9-0-9-12-9-0-9-10--9-|    C|-5--0-|

Chorus [0:51-1:11]
c|----------------------------------------------|
A|----------------------------------------------|
F|-11-----9---------77-6-666--------------------|
C|-9-x16--7-x16-5-5-55-5-555-7777--00-x-0--2----| x2
G|-9------7-----5-5-55-5-555-5555--00-x-0--2-x8-|
C|-9------7-----5-5-55-5-555-5555--00-x-0--2----|

Post-Chorus [1:12-1:14]             [1:14-1:16]
c|--------------------------------|  c|------|
A|--------------------------------|  A|------|
F|--------------------------------|  F|------|
C|-99-0-9-10-9-0-9-12-9-0-9-10--9-|  C|-5--0-|
G|-99-0-9-10-9-0-9-12-9-0-9-10--9-|  G|-5--0-|
C|-99-0-9-10-9-0-9-12-9-0-9-10--9-|  C|-5--0-|

Verse [1:17-1:36]
c|--------------------------------------------|
A|--------------------------------------------|
F|-11-11-------11-11-------9-9-------9-9------|
C|--------9-9---------9-9-------9-9-------9-9-|
G|--------------------------------------------|
C|--------------------------------------------|
PM ...........................................

c|------------------------------------------------|
A|------------------------------------------------|
F|-11-11-------11-11------------------------------|
C|--------9-9---------9-9--12-12--9-9--11-11--9-9-| x4
G|------------------------------------------------|
C|------------------------------------------------|
PM ...............................................

Chorus [1:37-1:45]                    [1:45-1:47]
c|--------------------------------|    c|------|
A|--------------------------------|    A|------|
F|--------------------------------|    F|------|
C|-99-0-9-10-9-0-9-12-9-0-9-10--9-| x3 C|-5--0-|
G|-99-0-9-10-9-0-9-12-9-0-9-10--9-|    G|-5--0-|
C|-99-0-9-10-9-0-9-12-9-0-9-10--9-|    C|-5--0-|

Chorus [1:48-2:06]                                  [2:06-2:09]
c|----------------------------------------------|    c|------|
A|----------------------------------------------|    A|------|
F|-11-----9---------77-6-666--------------------|    F|------|
C|-9-x16--7-x16-5-5-55-5-555-7777--00-x-0--2----| x2 C|-2----|
G|-9------7-----5-5-55-5-555-5555--00-x-0--2-x8-|    G|-2-x8-|
C|-9------7-----5-5-55-5-555-5555--00-x-0--2----|    C|-2----|

Bridge [2:09-2:19]
c|----------------------------------------|
A|----------------------------------------|
F|----------------------------------------|
C|-444-555-000-222---444-555-000-22222222-| x2
G|-444-555-000-222---444-555-000-22222222-|
C|-222-555-000-222---222-555-000-22222222-|

Bridge [2:19-2:26]
c|------------------|
A|------------------|
F|------------------|
C|-4445550002222222-| x3
G|-4445550002222222-|
C|-2225550002222222-|

Bridge [2:27-2:30]
c|--------------|
A|--------------|
F|--------------|
C|-00-x-0-2-----|
G|-00-x-0-2-x16-|
C|-00-x-0-2-----|

Bridge [2:31-2:40]
c|-------------------------------|
A|-------------------------------|
F|-------------------------------| [[  Cool  ]]
C|-------------------------------| [[ Phaser ]]
G|-------------------------------| [[ Effect ]]
C|-99-0-9-10-9-0-9-12-9-0-9-10-9-|
PM .............................

Chorus [2:41-2:48]                    [2:48-2:50]
c|--------------------------------|    c|------|
A|--------------------------------|    A|------|
F|--------------------------------|    F|------|
C|-99-0-9-10-9-0-9-12-9-0-9-10--9-| x3 C|-5--0-|
G|-99-0-9-10-9-0-9-12-9-0-9-10--9-|    G|-5--0-|
C|-99-0-9-10-9-0-9-12-9-0-9-10--9-|    C|-5--0-|

Chorus [2:51-3:11]
c|----------------------------------------------|
A|----------------------------------------------|
F|-11-----9---------77-6-666--------------------|
C|-9-x16--7-x16-5-5-55-5-555-7777--00-x-0--2----| x2
G|-9------7-----5-5-55-5-555-5555--00-x-0--2-x8-|
C|-9------7-----5-5-55-5-555-5555--00-x-0--2----|

Outro [3:12-3:18]                     [3:19-3:21]
c|--------------------------------|    c|------|
A|--------------------------------|    A|------|
F|--------------------------------|    F|------|
C|-99-0-9-10-9-0-9-12-9-0-9-10--9-| x3 C|-5--0-|
G|-99-0-9-10-9-0-9-12-9-0-9-10--9-|    G|-5--0-|
C|-99-0-9-10-9-0-9-12-9-0-9-10--9-|    C|-5--0-|

Outro [3:21-END]
c|----|
A|----|
F|----|
C|-9\-|
G|-9\-|
C|-9\-|


Legend
===============================================================================
| x   Mute note
| .   Palm mute
| \   Slide down
| x?? Strum Multiplier (ex:. x16 - Strum 16 times)
===============================================================================
Tap to rate this tab
 
# A B C D E F G H I J K L M N O P Q R S T U V W X Y Z