Trapt - Headstrong tab

HEADSTRONG-Trapt

Chris Taylor Brown-Vocals
Simon Ormandy-Guitar
Peter Charell-Bass
David Stege-Drums


NOTE: IT IS PLAYED ON A 7-STRING GUITAR! If you have a bias opinion
on that statement, please feel free to refer to the music video on Youtube.

This is my own interpretation of the song, which, not to gloat, sounds pretty damn accurate.

I have also taken the courtesy of providing the note lengths:
W-Whole note
H-Half note
E-Eighth note
S-Sixteenth note
T-Thirty-second note
Note with a dote is represented a another half of its value
(e.g.) E.=Dotted Eight note or an Eighth note tied to a sixteenth note.
A Note above no fret number represents a rest.

7-string guitar tuning:(B E A D G B E)

Introduction:
   S S E E S S E E S S E   S S E E S S E E S E.
|------------------------|----------------------||
|o-----7-7-----7-7-------|-----5-5-----5-5-----o||
|------------------------|----------------------||
|------------------------|----------------------||
|--7-7-----7-7-----7-7---|-5-5-----5-5-----5\3--||
|o-7-7-----7-7-----7-7---|-5-5-----5-5-----5\3-o||
|--5-5-----5-5-----5-5---|-3-3-----3-3-----3\1--||

Verse:
   S E  S E  S E  S E   S E. T   S E  S E  S E  S E E E
|-------------------------7----|-------------------------|(x5)
|o---7----7----8----7----------|---5----5----5----3-3-3-o|
|--9----9----9----9-----9------|-7----7----7----5--------|
|------------------------------|-------------------------|
|------------------------------|-------------------------|
|o-----------------------------|------------------------o|
|------------------------------|-------------------------|

  W                              W
|-0---------------------------|-(0)---------------------||
|-7---------------------------|-(7)---------------------||
|-9---------------------------|-(9)---------------------||
|-9---------------------------|-(9)---------------------||
|-----------------------------|-------------------------||
|-----------------------------|-------------------------||
|-----------------------------|-------------------------||

Pre-Chorus:
   S S E E S S E E S S E   S S E E S S E E S E.
|------------------------|----------------------||(x4)
|o-----7-7-----7-7-------|-----5-5-----5-5-----o||
|------------------------|----------------------||
|------------------------|----------------------||
|--7-7-----7-7-----7-7---|-5-5-----5-5-----5\3--||
|o-7-7-----7-7-----7-7---|-5-5-----5-5-----5\3-o||
|--5-5-----5-5-----5-5---|-3-3-----3-3-----3\1--||

Chorus:
 |----3----|  |----3----|
  Q   Q   Q    Q    E  Q.    Q.     Q.       Q
|-------------------------|-------------------------|
|-------------------------|-------------------------|
|-13--13--13--(13)-11--9--|--9------7---------------|
|-------------------------|-------------------------|
|-11--11--11--(11)--9--7--|--7------5---------------|
|-------------------------|-------------------------|
|-------------------------|-------------------------|

 |----3----| |----3----|
  Q   Q   Q   Q   E   Q.    H.         E  E
|------------------------|-------------------||
|------------------------|-------------------||
|-13--11--14--13--11--9--|--9---------(9)----||
|------------------------|-------------------||
|-11---9--12--11---9--7--|--7---------(7)----||
|------------------------|-------------------||
|------------------------|-------------------||

Verse:
   S E  S E  S E  S E   S E. T   S E  S E  S E  S E E E
|-------------------------7----|-------------------------|(x6)
|o---7----7----8----7----------|---5----5----5----3-3-3-o|
|--9----9----9----9-----9------|-7----7----7----5--------|
|------------------------------|-------------------------|
|------------------------------|-------------------------|
|o-----------------------------|------------------------o|
|------------------------------|-------------------------|

  W                              W
|-0---------------------------|-(0)---------------------||
|-7---------------------------|-(7)---------------------||
|-9---------------------------|-(9)---------------------||
|-9---------------------------|-(9)---------------------||
|-----------------------------|-------------------------||
|-----------------------------|-------------------------||
|-----------------------------|-------------------------||

Pre-Chorus:
   S S E E S S E E S S E   S S E E S S E E S E.
|------------------------|----------------------||(x4)
|o-----7-7-----7-7-------|-----5-5-----5-5-----o||
|------------------------|----------------------||
|------------------------|----------------------||
|--7-7-----7-7-----7-7---|-5-5-----5-5-----5\3--||
|o-7-7-----7-7-----7-7---|-5-5-----5-5-----5\3-o||
|--5-5-----5-5-----5-5---|-3-3-----3-3-----3\1--||

Chorus:
 |----3----|  |----3----|
  Q   Q   Q    Q    E  Q.    Q.     Q.       Q
|-------------------------|-------------------------|
|-------------------------|-------------------------|
|-13--13--13--(13)-11--9--|--9------7---------------|
|-------------------------|-------------------------|
|-11--11--11--(11)--9--7--|--7------5---------------|
|-------------------------|-------------------------|
|-------------------------|-------------------------|

 |----3----| |----3----|
  Q   Q   Q   Q   E   Q.    H.         E  E
|------------------------|-------------------||
|------------------------|-------------------||
|-13--11--14--13--11--9--|--9---------(9)----||
|------------------------|-------------------||
|-11---9--12--11---9--7--|--7---------(7)----||
|------------------------|-------------------||
|------------------------|-------------------||

Verse:
   S  E    S  E    S  E    S  E    S  E. T
|-------------------------------------19---|
|o----19------19------20------19-----------|
|--21------21------21------21------21------|
|------------------------------------------|
|------------------------------------------|
|o-----------------------------------------|
|------------------------------------------|

  S  E   S  E   S  E   S  E   S   E. T
|--------------------------------------||
|----17-----17-----19-----17----------o||
|-19-----19-----19-----19-----19--16---||
|--------------------------------------||
|--------------------------------------||
|-------------------------------------o||
|--------------------------------------||

Pre-Chorus:
   S S E E S S E E S S E   S S E E S S E E S E.
|------------------------|----------------------||(x4)
|o-----7-7-----7-7-------|-----5-5-----5-5-----o||
|------------------------|----------------------||
|------------------------|----------------------||
|--7-7-----7-7-----7-7---|-5-5-----5-5-----5\3--||
|o-7-7-----7-7-----7-7---|-5-5-----5-5-----5\3-o||
|--5-5-----5-5-----5-5---|-3-3-----3-3-----3\1--||

Chorus:
 |----3----|  |----3----|
  Q   Q   Q    Q    E  Q.    Q.     Q.       Q
|-------------------------|-------------------------|
|-------------------------|-------------------------|
|-13--13--13--(13)-11--9--|--9------7---------------|
|-------------------------|-------------------------|
|-11--11--11--(11)--9--7--|--7------5---------------|
|-------------------------|-------------------------|
|-------------------------|-------------------------|

 |----3----| |----3----|
  Q   Q   Q   Q   E   Q.    H.         E  E
|------------------------|-------------------||
|------------------------|-------------------||
|-13--11--14--13--11--9--|--9---------(9)----||
|------------------------|-------------------||
|-11---9--12--11---9--7--|--7---------(7)----||
|------------------------|-------------------||
|------------------------|-------------------||

Outro:
  S S E E S S E E S S E   S S E E S S E E S E.   W      W
|-----------------------|---------------------|-------|--------*||
|-----7-7-----7-7-------|-----5-5-----5-5-----|-------|--------*||
|-----------------------|---------------------|-------|--------*||
|-----------------------|---------------------|-------|--------*||
|-7-7-----7-7-----7-7---|-5-5-----5-5-----5\3-|-(3)---|-(3)----*||
|-7-7-----7-7-----7-7---|-5-5-----5-5-----5\3-|-(3)---|-(3)----*||
|-5-5-----5-5-----5-5---|-3-3-----3-3-----3\1-|-(1)---|-(1)----*||
Tap to rate this tab
 
# A B C D E F G H I J K L M N O P Q R S T U V W X Y Z