Guitaretab - guitar tabs
Song name
# A B C D E F G H I J K L M N O P Q R S T U V W X Y Z

Trapt - Headstrong tab

Trapt - Headstrong

Tabbed by: Jordan Williams
Email: jordzo@hotmail.com

For a 6 String Guitar

Tuning - CGCGBE

I know that CGCGBE is a strange tuning, but i found that it worked much better to use this
tuning on a 6 string guitar for this song. It makes the chorus much easier to reach than 
if it is in Drop C.

Please rate and comment this tab as it is my first tab!

INTRO - WITH DISTORTION             0:00 - 0:15

E-------------------------------------------------------------------------|
B--------7--7--------7--7------------------5--5---------5--5--------------|
G-------------------------------------------------------------------------|
C--4--4--------4--4--------4--4------2--2--------2--2----------2--2--2--0-|
G--4--4--------4--4--------4--4------2--2--------2--2----------2--2--2--0-|
C--4--4--------4--4--------4--4------2--2--------2--2----------2--2--2--0-|

E-------------------------------------------------------------------------|
B--------7--7--------7--7---------------5--5--------5--5------------------|
G-------------------------------------------------------------------------|
C--4--4--------4--4--------4--4/--2--2--------2--2--------2--0------------|
G--4--4--------4--4--------4--4/--2--2--------2--2--------2--0------------|
C--4--4--------4--4--------4--4/--2--2--------2--2--------2--0------------|

E-------------------------------------------------------------------------|
B--------7--7--------7--7---------------5--5--------5--5------------------|
G-------------------------------------------------------------------------|
C--4--4--------4--4--------4--4/--2--2--------2--2--------2--0------------|
G--4--4--------4--4--------4--4/--2--2--------2--2--------2--0------------|
C--4--4--------4--4--------4--4/--2--2--------2--2--------2--0------------|


VERSE - CLEAN                    0:16 - 0:42

E----------------------------7--------------------------------------------|
B-----7-----7-----8-----7----------5-----5-----5--3--3--3-----------------|
G--9-----9-----9-----9----9-----7-----7-----7-----------------------------|
C-------------------------------------------------------------------------|
G-------------------------------------------------------------------------|
C-------------------------------------------------------------------------|

E----------------------------7--------------------------------------------|
B-----7-----7-----8-----7----------5-----5-----5--3--3--3-----------------|
G--9-----9-----9-----9----9-----7-----7-----7-----------------------------|
C-------------------------------------------------------------------------|
G-------------------------------------------------------------------------|
C-------------------------------------------------------------------------|

E----------------------------7--------------------------------------------|
B-----7-----7-----8-----7----------5-----5-----5--3--3--3-----------------|
G--9-----9-----9-----9----9-----7-----7-----7-----------------------------|
C-------------------------------------------------------------------------|
G-------------------------------------------------------------------------|
C-------------------------------------------------------------------------|

E----------------------------7--------------------------------------------|
B-----7-----7-----8-----7----------5-----5-----5--3--3--3-----------------|
G--9-----9-----9-----9----9-----7-----7-----7-----------------------------|
C-------------------------------------------------------------------------|
G-------------------------------------------------------------------------|
C-------------------------------------------------------------------------|

E----------------------------7--------------------------------------------|
B-----7-----7-----8-----7----------5-----5-----5--3--3--3-----------------|
G--9-----9-----9-----9----9-----7-----7-----7-----------------------------|
C-------------------------------------------------------------------------|
G-------------------------------------------------------------------------|
C-------------------------------------------------------------------------|

CHORUS - WITH DISTORTION                   0:47 - 1:07

E-------------------------------------------------------------------------|
B--------7--7--------7--7---------------5--5--------5--5------------------|
G-------------------------------------------------------------------------|
C--4--4--------4--4--------4--4/--2--2--------2--2--------2--0------------|
G--4--4--------4--4--------4--4/--2--2--------2--2--------2--0------------|
C--4--4--------4--4--------4--4/--2--2--------2--2--------2--0------------|

E-------------------------------------------------------------------------|
B--------7--7--------7--7---------------5--5--------5--5------------------|
G-------------------------------------------------------------------------|
C--4--4--------4--4--------4--4/--2--2--------2--2--------2--0------------|
G--4--4--------4--4--------4--4/--2--2--------2--2--------2--0------------|
C--4--4--------4--4--------4--4/--2--2--------2--2--------2--0------------|

E-------------------------------------------------------------------------|
B--------7--7--------7--7---------------5--5--------5--5------------------|
G-------------------------------------------------------------------------|
C--4--4--------4--4--------4--4/--2--2--------2--2--------2--0------------|
G--4--4--------4--4--------4--4/--2--2--------2--2--------2--0------------|
C--4--4--------4--4--------4--4/--2--2--------2--2--------2--0------------|

E-------------------------------------------------------------------------|
B--------7--7--------7--7---------------5--5--------5--5------------------|
G-------------------------------------------------------------------------|
C--4--4--------4--4--------4--4/--2--2--------2--2--------2--0------------|
G--4--4--------4--4--------4--4/--2--2--------2--2--------2--0------------|
C--4--4--------4--4--------4--4/--2--2--------2--2--------2--0------------|

AFTER CHORUS - WITH DISTORTION               1:07 - 1:27

E-------------------------------------------------------------------------|
B---9-9-9-9-9--7-7-5-5-----------------9-7-10-9-7-5-----------------------|
G-------------------------------------------------------------------------|
C---8-8-8-8-8--6-6-4-4----0--2--2-2-2--8-6-9--8-6-4----0--2--2-2-2--------|
G-------------------------0--2--2-2-2------------------0--2--2-2-2--------|
C-------------------------0--2--2-2-2------------------0--2--2-2-2--------|

E-------------------------------------------------------------------------|
B---9-9-9-9-9--10-10--12-12-----------------9-7-10-9-7-5------------------|
G-------------------------------------------------------------------------|
C---8-8-8-8-8--9--9---11-11----0--2--2-2-2--8-6-9--8-6-4--0--2--2-2-2-----|
G------------------------------0--2--2-2-2----------------0--2--2-2-2-----|
C------------------------------0--2--2-2-2----------------0--2--2-2-2-----|

VERSE - CLEAN                                1:28 - 2:00

E----------------------------7--------------------------------------------|
B-----7-----7-----8-----7----------5-----5-----5--3--3--3-----------------|
G--9-----9-----9-----9----9-----7-----7-----7-----------------------------|
C-------------------------------------------------------------------------|
G-------------------------------------------------------------------------|
C-------------------------------------------------------------------------|

E----------------------------7--------------------------------------------|
B-----7-----7-----8-----7----------5-----5-----5--3--3--3-----------------|
G--9-----9-----9-----9----9-----7-----7-----7-----------------------------|
C-------------------------------------------------------------------------|
G-------------------------------------------------------------------------|
C-------------------------------------------------------------------------|

E----------------------------7--------------------------------------------|
B-----7-----7-----8-----7----------5-----5-----5--3--3--3-----------------|
G--9-----9-----9-----9----9-----7-----7-----7-----------------------------|
C-------------------------------------------------------------------------|
G-------------------------------------------------------------------------|
C-------------------------------------------------------------------------|

E----------------------------7--------------------------------------------|
B-----7-----7-----8-----7----------5-----5-----5--3--3--3-----------------|
G--9-----9-----9-----9----9-----7-----7-----7-----------------------------|
C-------------------------------------------------------------------------|
G-------------------------------------------------------------------------|
C-------------------------------------------------------------------------|

E----------------------------7--------------------------------------------|
B-----7-----7-----8-----7----------5-----5-----5--3--3--3-----------------|
G--9-----9-----9-----9----9-----7-----7-----7-----------------------------|
C-------------------------------------------------------------------------|
G-------------------------------------------------------------------------|
C-------------------------------------------------------------------------|

E----------------------------7--------------------------------------------|
B-----7-----7-----8-----7----------5-----5-----5--3--3--3-----------------|
G--9-----9-----9-----9----9-----7-----7-----7-----------------------------|
C-------------------------------------------------------------------------|
G-------------------------------------------------------------------------|
C-------------------------------------------------------------------------|

CHORUS - WITH DISTORTION                  2:05 - 2:25

E-------------------------------------------------------------------------|
B--------7--7--------7--7---------------5--5--------5--5------------------|
G-------------------------------------------------------------------------|
C--4--4--------4--4--------4--4/--2--2--------2--2--------2--0------------|
G--4--4--------4--4--------4--4/--2--2--------2--2--------2--0------------|
C--4--4--------4--4--------4--4/--2--2--------2--2--------2--0------------|
[ Tab from: http://www.guitaretab.com/t/trapt/31095.html ]
E-------------------------------------------------------------------------|
B--------7--7--------7--7---------------5--5--------5--5------------------|
G-------------------------------------------------------------------------|
C--4--4--------4--4--------4--4/--2--2--------2--2--------2--0------------|
G--4--4--------4--4--------4--4/--2--2--------2--2--------2--0------------|
C--4--4--------4--4--------4--4/--2--2--------2--2--------2--0------------|

E-------------------------------------------------------------------------|
B--------7--7--------7--7---------------5--5--------5--5------------------|
G-------------------------------------------------------------------------|
C--4--4--------4--4--------4--4/--2--2--------2--2--------2--0------------|
G--4--4--------4--4--------4--4/--2--2--------2--2--------2--0------------|
C--4--4--------4--4--------4--4/--2--2--------2--2--------2--0------------|

E-------------------------------------------------------------------------|
B--------7--7--------7--7---------------5--5--------5--5------------------|
G-------------------------------------------------------------------------|
C--4--4--------4--4--------4--4/--2--2--------2--2--------2--0------------|
G--4--4--------4--4--------4--4/--2--2--------2--2--------2--0------------|
C--4--4--------4--4--------4--4/--2--2--------2--2--------2--0------------|

AFTER CHORUS - WITH DISTORTION               2:25 - 2:46

E-------------------------------------------------------------------------|
B---9-9-9-9-9--7-7-5-5-----------------9-7-10-9-7-5-----------------------|
G-------------------------------------------------------------------------|
C---8-8-8-8-8--6-6-4-4----0--2--2-2-2--8-6-9--8-6-4----0--2--2-2-2--------|
G-------------------------0--2--2-2-2------------------0--2--2-2-2--------|
C-------------------------0--2--2-2-2------------------0--2--2-2-2--------|

E-------------------------------------------------------------------------|
B---9-9-9-9-9--10-10--12-12-----------------9-7-10-9-7-5------------------|
G-------------------------------------------------------------------------|
C---8-8-8-8-8--9--9---11-11----0--2--2-2-2--8-6-9--8-6-4--0--2--2-2-2-----|
G------------------------------0--2--2-2-2----------------0--2--2-2-2-----|
C------------------------------0--2--2-2-2----------------0--2--2-2-2-----|

SOLO? - CLEAN                                2:52 - 3:07

E-----14------14--------15-----14-------19--------------------------------|
B--------0-------0---------0------0---------------------------------------|
G-------------------------------------------------------------------------|
C--16------16-------16-------16-----16------------------------------------|
G-------------------------------------------------------------------------|
C-------------------------------------------------------------------------|

E------12------12------14-----12------12----------------------------------|
B---------0-------0-------0------0----------------------------------------|
G-------------------------------------------------------------------------|
C--14-------14------14-----14------14-------------------------------------|
G-------------------------------------------------------------------------|
C-------------------------------------------------------------------------|

E-----14------14--------15-----17------15---------------------------------|
B--------0-------0---------0------0---------------------------------------|
G-------------------------------------------------------------------------|
C--16------16-------16-------16-----16------------------------------------|
G-------------------------------------------------------------------------|
C-------------------------------------------------------------------------|

E------12------12------14-----14------14----------------------------------|
B---------0-------0-------0------0----------------------------------------|
G-------------------------------------------------------------------------|
C--14-------14------14-----14------14-------------------------------------|
G-------------------------------------------------------------------------|
C-------------------------------------------------------------------------|

CHORUS - WITH DISTORTION                           3:12 - 3:32

E-------------------------------------------------------------------------|
B--------7--7--------7--7---------------5--5--------5--5------------------|
G-------------------------------------------------------------------------|
C--4--4--------4--4--------4--4/--2--2--------2--2--------2--0------------|
G--4--4--------4--4--------4--4/--2--2--------2--2--------2--0------------|
C--4--4--------4--4--------4--4/--2--2--------2--2--------2--0------------|

E-------------------------------------------------------------------------|
B--------7--7--------7--7---------------5--5--------5--5------------------|
G-------------------------------------------------------------------------|
C--4--4--------4--4--------4--4/--2--2--------2--2--------2--0------------|
G--4--4--------4--4--------4--4/--2--2--------2--2--------2--0------------|
C--4--4--------4--4--------4--4/--2--2--------2--2--------2--0------------|

E-------------------------------------------------------------------------|
B--------7--7--------7--7---------------5--5--------5--5------------------|
G-------------------------------------------------------------------------|
C--4--4--------4--4--------4--4/--2--2--------2--2--------2--0------------|
G--4--4--------4--4--------4--4/--2--2--------2--2--------2--0------------|
C--4--4--------4--4--------4--4/--2--2--------2--2--------2--0------------|

E-------------------------------------------------------------------------|
B--------7--7--------7--7---------------5--5--------5--5------------------|
G-------------------------------------------------------------------------|
C--4--4--------4--4--------4--4/--2--2--------2--2--------2--0------------|
G--4--4--------4--4--------4--4/--2--2--------2--2--------2--0------------|
C--4--4--------4--4--------4--4/--2--2--------2--2--------2--0------------|

AFTER CHORUS - WITH DISTORTION                       3:33 - 4:03

E-------------------------------------------------------------------------|
B---9-9-9-9-9--7-7-5-5-----------------9-7-10-9-7-5-----------------------|
G-------------------------------------------------------------------------|
C---8-8-8-8-8--6-6-4-4----0--2--2-2-2--8-6-9--8-6-4----0--2--2-2-2--------|
G-------------------------0--2--2-2-2------------------0--2--2-2-2--------|
C-------------------------0--2--2-2-2------------------0--2--2-2-2--------|

E--------------------------------------------------------------------------|
B---9-9-9-9-9--10-10--12-12-----------------9-7-10-9-7-5-------------------|
G--------------------------------------------------------------------------|
C---8-8-8-8-8--9--9---11-11----0--2--2-2-2--8-6-9--8-6-4--0--2--2-2-2------|
G------------------------------0--2--2-2-2----------------0--2--2-2-2------|
C------------------------------0--2--2-2-2----------------0--2--2-2-2------|

E--------------------------------------------------------------------------|
B---9-9-9-9-9--7-7-5-5-----------------9-7-10-9-7-5------------------------|
G--------------------------------------------------------------------------|
C---8-8-8-8-8--6-6-4-4----0--2--2-2-2--8-6-9--8-6-4----0--2--2-2-2---------|
G-------------------------0--2--2-2-2------------------0--2--2-2-2---------|
C-------------------------0--2--2-2-2------------------0--2--2-2-2---------|

OUTRO - WITH DISTORTION                            4:04 - 4:14

E--------------------------------------------------------------------------|
B--------7--7--------7--7---------------5--5--------5--5-------------------|
G--------------------------------------------------------------------------|
C--4--4--------4--4--------4--4/--2--2--------2--2--------2--0-------------|
G--4--4--------4--4--------4--4/--2--2--------2--2--------2--0-------------|
C--4--4--------4--4--------4--4/--2--2--------2--2--------2--0-------------|

E--------------------------------------------------------------------------|
B-------7--7--------7--7---------------5--5--------5--5--------------------|
G--------------------------------------------------------------------------|
C-4--4--------4--4--------4--4/--2--2--------2--2--------2--0-sustained----|
G-4--4--------4--4--------4--4/--2--2--------2--2--------2--0-until end----|
C-4--4--------4--4--------4--4/--2--2--------2--2--------2--0-of song(4:45-|
                      


                          Lyrics
Verse

Circling your, circling your, circling your head
Contemplating everything you ever said
Now I see the truth I got a doubt
A different motive in your eyes and now I'm out
I'll see you later
I see your fantasy you want to make a reality paved in gold

See inside, inside of our heads yeah, well now thatís over
I see your motives inside, decisions to hide

Chorus

Back off, I'll take you on
Headstrong to take on anyone
I know that you are wrong
Headstrong, we're headstrong
Back off, I'll take you on
Headstrong to take on anyone
I know that you are wrong
And this is not where you belong

After Chorus

I can't give everything away
I won't give everything away

Verse

Conclusions manifest
Your first impressions got to be your very best
I see you're full of shit and that's alright
That's how you play I guess you get through every night
Well now that's over
I see your fantasy you want to make it a reality paved in gold
See inside, inside of our heads, yeah
Well now thatís over
I see your motives inside and your decision to hide

Chorus

Back off, I'll take you on
Headstrong to take on anyone
I know that you are wrong
Headstrong, we're headstrong
Back off, I'll take you on
Headstrong to take on anyone
I know that you are wrong
And this is not where you belong (where you belong)

After Chorus

I can't give everything away (This is not where you belong)
I won't give everything away

Solo

I know, I know all about, I know, I know all about,
I know, I know all about, I know, I know all about,
your motives inside, and your decision to hide

Chorus

Back off, I'll take you on
Headstrong to take on anyone
I know that you are wrong
Headstrong, we're headstrong
Back off, I'll take you on
Headstrong to take on anyone
I know that you are wrong
And this is not where you belong (where you belong)
This is not where you belong

After Chorus

I can't give everything away (This is not where you belong)
I won't give everything away (This is not where you belong)

This is not where you belong
Related for Headstrong tab