Song name
# A B C D E F G H I J K L M N O P Q R S T U V W X Y Z

Trapt - Experience Acoustic tab

Song: Experience(Acoustic Version)
Artist: Trapt
Album: Reborn(Deluxe Edition)
Song Duration: 3:49
Tuning: Standard

There are two guitars. Guitar 1 is lead with riffs, Guitar 2 is rhythm with lots of chords.

Intro (0:00)
Guitar 1
                             * pluck   *
e|---5-5-5-5----------5-5--5-2-2-2-2-2-2----------------| Repeat twice before the second guitar
B|----3-3-3-3-2-2-2---3-3----3-3-3-3-3-3-5-5-5----------| comes in. Listen for rhythm
G|------------------------------------------------------| 4x total I believe
D|-0----------------0-----------------------------------|
A|------------------------------------------------------|
E|------------------------------------------------------|

Guitar 2 (0:14)
Iíll just put the chords, strum patterns are obvious if you hear the song
e|-2--0--3--3--2--0--|
B|-3--3--3--3--3--3--| Come in after guitar 1 plays twice
G|-4--2--0--0--2--2--| Repeat 2x
D|-4--2--2--0--0--0--|
A|-2--x--3--2--x--x--|
E|-x--x--x--3--x--x--|

I havent figured the rest out yet. I have some of the verse. Not all.  I will post once 
i do. Be nice im only 15. Please rate if helpful. I love this song. Makes me think of 
this girl i like, Ellie
Tap to rate this tab
 
# A B C D E F G H I J K L M N O P Q R S T U V W X Y Z